  0
SECTION
  2
HEADER
  9
$ACADVER
  1
AC1012
  9
$DWGCODEPAGE
  3
dos932
  9
$INSBASE
 10
0.0
 20
0.0
 30
0.0
  9
$EXTMIN
 10
6785.580737
 20
2266.135271
 30
0.0
  9
$EXTMAX
 10
87269.498657
 20
54932.333896
 30
0.0
  9
$LIMMIN
 10
0.0
 20
0.0
  9
$LIMMAX
 10
90297.781477
 20
60198.884279
  9
$ORTHOMODE
 70
     1
  9
$REGENMODE
 70
     1
  9
$FILLMODE
 70
     1
  9
$QTEXTMODE
 70
     0
  9
$MIRRTEXT
 70
     0
  9
$DRAGMODE
 70
     2
  9
$LTSCALE
 40
100.0
  9
$OSMODE
 70
     0
  9
$ATTMODE
 70
     1
  9
$TEXTSIZE
 40
700.0
  9
$TRACEWID
 40
0.05
  9
$TEXTSTYLE
  7
STANDARD
  9
$CLAYER
  8
0
  9
$CELTYPE
  6
BYLAYER
  9
$CECOLOR
 62
   256
  9
$CELTSCALE
 40
1.0
  9
$DELOBJ
 70
     1
  9
$DISPSILH
 70
     0
  9
$DIMSCALE
 40
1.0
  9
$DIMASZ
 40
100.0
  9
$DIMEXO
 40
100.0
  9
$DIMDLI
 40
100.0
  9
$DIMRND
 40
1.0
  9
$DIMDLE
 40
0.0
  9
$DIMEXE
 40
100.0
  9
$DIMTP
 40
0.0
  9
$DIMTM
 40
0.0
  9
$DIMTXT
 40
200.0
  9
$DIMCEN
 40
0.0
  9
$DIMTSZ
 40
0.0
  9
$DIMTOL
 70
     0
  9
$DIMLIM
 70
     0
  9
$DIMTIH
 70
     0
  9
$DIMTOH
 70
     0
  9
$DIMSE1
 70
     0
  9
$DIMSE2
 70
     0
  9
$DIMTAD
 70
     1
  9
$DIMZIN
 70
     8
  9
$DIMBLK
  1

  9
$DIMASO
 70
     1
  9
$DIMSHO
 70
     1
  9
$DIMPOST
  1

  9
$DIMAPOST
  1

  9
$DIMALT
 70
     0
  9
$DIMALTD
 70
     2
  9
$DIMALTF
 40
25.4
  9
$DIMLFAC
 40
1.0
  9
$DIMTOFL
 70
     0
  9
$DIMTVP
 40
0.0
  9
$DIMTIX
 70
     0
  9
$DIMSOXD
 70
     0
  9
$DIMSAH
 70
     0
  9
$DIMBLK1
  1

  9
$DIMBLK2
  1

  9
$DIMSTYLE
  2
CADLOG
  9
$DIMCLRD
 70
     0
  9
$DIMCLRE
 70
     0
  9
$DIMCLRT
 70
     0
  9
$DIMTFAC
 40
1.0
  9
$DIMGAP
 40
0.0
  9
$DIMJUST
 70
     0
  9
$DIMSD1
 70
     0
  9
$DIMSD2
 70
     0
  9
$DIMTOLJ
 70
     1
  9
$DIMTZIN
 70
     8
  9
$DIMALTZ
 70
     8
  9
$DIMALTTZ
 70
     8
  9
$DIMFIT
 70
     5
  9
$DIMUPT
 70
     0
  9
$DIMUNIT
 70
     2
  9
$DIMDEC
 70
     2
  9
$DIMTDEC
 70
     2
  9
$DIMALTU
 70
     2
  9
$DIMALTTD
 70
     2
  9
$DIMTXSTY
  7
EXTFONT
  9
$DIMAUNIT
 70
     0
  9
$LUNITS
 70
     2
  9
$LUPREC
 70
     2
  9
$SKETCHINC
 40
0.1
  9
$FILLETRAD
 40
0.0
  9
$AUNITS
 70
     0
  9
$AUPREC
 70
     1
  9
$MENU
  1
CADLOG
  9
$ELEVATION
 40
0.0
  9
$PELEVATION
 40
0.0
  9
$THICKNESS
 40
0.0
  9
$LIMCHECK
 70
     0
  9
$BLIPMODE
 70
     1
  9
$CHAMFERA
 40
0.0
  9
$CHAMFERB
 40
0.0
  9
$CHAMFERC
 40
0.0
  9
$CHAMFERD
 40
0.0
  9
$SKPOLY
 70
     0
  9
$TDCREATE
 40
2451816.664317477
  9
$TDUPDATE
 40
2451816.664317477
  9
$TDINDWG
 40
0.0000000000
  9
$TDUSRTIMER
 40
0.0000000000
  9
$USRTIMER
 70
     1
  9
$ANGBASE
 50
0.0
  9
$ANGDIR
 70
     0
  9
$PDMODE
 70
    35
  9
$PDSIZE
 40
-3.0
  9
$PLINEWID
 40
0.0
  9
$COORDS
 70
     1
  9
$SPLFRAME
 70
     0
  9
$SPLINETYPE
 70
     6
  9
$SPLINESEGS
 70
     8
  9
$ATTDIA
 70
     0
  9
$ATTREQ
 70
     1
  9
$HANDLING
 70
     1
  9
$HANDSEED
  5
3375
  9
$SURFTAB1
 70
     6
  9
$SURFTAB2
 70
     6
  9
$SURFTYPE
 70
     6
  9
$SURFU
 70
     6
  9
$SURFV
 70
     6
  9
$UCSNAME
  2

  9
$UCSORG
 10
0.0
 20
0.0
 30
0.0
  9
$UCSXDIR
 10
1.0
 20
0.0
 30
0.0
  9
$UCSYDIR
 10
0.0
 20
1.0
 30
0.0
  9
$PUCSNAME
  2

  9
$PUCSORG
 10
0.0
 20
0.0
 30
0.0
  9
$PUCSXDIR
 10
1.0
 20
0.0
 30
0.0
  9
$PUCSYDIR
 10
0.0
 20
1.0
 30
0.0
  9
$USERI1
 70
     0
  9
$USERI2
 70
     0
  9
$USERI3
 70
     0
  9
$USERI4
 70
     0
  9
$USERI5
 70
     0
  9
$USERR1
 40
0.0
  9
$USERR2
 40
0.0
  9
$USERR3
 40
0.0
  9
$USERR4
 40
0.0
  9
$USERR5
 40
0.0
  9
$WORLDVIEW
 70
     1
  9
$SHADEDGE
 70
     3
  9
$SHADEDIF
 70
    70
  9
$TILEMODE
 70
     1
  9
$MAXACTVP
 70
    16
  9
$PINSBASE
 10
0.0
 20
0.0
 30
0.0
  9
$PLIMCHECK
 70
     0
  9
$PEXTMIN
 10
1.000000E+20
 20
1.000000E+20
 30
1.000000E+20
  9
$PEXTMAX
 10
-1.000000E+20
 20
-1.000000E+20
 30
-1.000000E+20
  9
$PLIMMIN
 10
0.0
 20
0.0
  9
$PLIMMAX
 10
12.0
 20
9.0
  9
$UNITMODE
 70
     0
  9
$VISRETAIN
 70
     0
  9
$PLINEGEN
 70
     0
  9
$PSLTSCALE
 70
     1
  9
$TREEDEPTH
 70
  3020
  9
$PICKSTYLE
 70
     1
  9
$CMLSTYLE
  2
STANDARD
  9
$CMLJUST
 70
     0
  9
$CMLSCALE
 40
1.0
  9
$SAVEIMAGES
 70
     1
  0
ENDSEC
  0
SECTION
  2
CLASSES
  0
CLASS
  1
DICTIONARYVAR
  2
AcDbDictionaryVar
  3
"AutoCAD"
 90
    32768
280
     0
281
     0
  0
ENDSEC
  0
SECTION
  2
TABLES
  0
TABLE
  2
VPORT
  5
3345
100
AcDbSymbolTable
 70
     2
  0
VPORT
  5
3374
100
AcDbSymbolTableRecord
100
AcDbViewportTableRecord
  2
*ACTIVE
 70
     0
 10
0.0
 20
0.0
 11
1.0
 21
1.0
 12
46940.076191
 22
28524.108316
 13
0.0
 23
0.0
 14
500.0
 24
500.0
 15
0.0
 25
0.0
 16
0.0
 26
0.0
 36
1.0
 17
0.0
 27
0.0
 37
0.0
 40
53021.450157
 41
1.765267
 42
50.0
 43
0.0
 44
0.0
 50
0.0
 51
0.0
 71
     0
 72
   100
 73
     1
 74
     1
 75
     0
 76
     0
 77
     0
 78
     0
  0
ENDTAB
  0
TABLE
  2
LTYPE
  5
3342
100
AcDbSymbolTable
 70
     4
  0
LTYPE
  5
334E
100
AcDbSymbolTableRecord
100
AcDbLinetypeTableRecord
  2
BYBLOCK
 70
     0
  3

 72
    65
 73
     0
 40
0.0
  0
LTYPE
  5
334F
100
AcDbSymbolTableRecord
100
AcDbLinetypeTableRecord
  2
BYLAYER
 70
     0
  3

 72
    65
 73
     0
 40
0.0
  0
LTYPE
  5
3350
100
AcDbSymbolTableRecord
100
AcDbLinetypeTableRecord
  2
CONTINUOUS
 70
     0
  3
Solid line
 72
    65
 73
     0
 40
0.0
  0
LTYPE
  5
335B
100
AcDbSymbolTableRecord
100
AcDbLinetypeTableRecord
  2
DASHED
 70
     0
  3
DASHED
 72
    65
 73
     2
 40
0.75
 49
0.5
 74
     0
 49
-0.25
 74
     0
  0
LTYPE
  5
335C
100
AcDbSymbolTableRecord
100
AcDbLinetypeTableRecord
  2
CENTER
 70
     0
  3
CENTER
 72
    65
 73
     4
 40
2.0
 49
1.25
 74
     0
 49
-0.25
 74
     0
 49
0.25
 74
     0
 49
-0.25
 74
     0
  0
LTYPE
  5
335D
100
AcDbSymbolTableRecord
100
AcDbLinetypeTableRecord
  2
PHANTOM
 70
     0
  3
PHANTOM
 72
    65
 73
     6
 40
2.5
 49
1.25
 74
     0
 49
-0.25
 74
     0
 49
0.25
 74
     0
 49
-0.25
 74
     0
 49
0.25
 74
     0
 49
-0.25
 74
     0
  0
ENDTAB
  0
TABLE
  2
LAYER
  5
333F
100
AcDbSymbolTable
 70
     7
  0
LAYER
  5
334B
100
AcDbSymbolTableRecord
100
AcDbLayerTableRecord
  2
0
 70
     0
 62
     7
  6
CONTINUOUS
  0
LAYER
  5
3365
100
AcDbSymbolTableRecord
100
AcDbLayerTableRecord
  2
PV
 70
     0
 62
     7
  6
CONTINUOUS
  0
LAYER
  5
3366
100
AcDbSymbolTableRecord
100
AcDbLayerTableRecord
  2
LJ
 70
     0
 62
     2
  6
CONTINUOUS
  0
LAYER
  5
3367
100
AcDbSymbolTableRecord
100
AcDbLayerTableRecord
  2
SUPORTL
 70
     0
 62
     2
  6
CONTINUOUS
  0
LAYER
  5
3368
100
AcDbSymbolTableRecord
100
AcDbLayerTableRecord
  2
SUPORT2
 70
     0
 62
     2
  6
CONTINUOUS
  0
LAYER
  5
3369
100
AcDbSymbolTableRecord
100
AcDbLayerTableRecord
  2
HOOK
 70
     0
 62
     6
  6
CONTINUOUS
  0
LAYER
  5
336A
100
AcDbSymbolTableRecord
100
AcDbLayerTableRecord
  2
点
 70
     0
 62
     1
  6
CONTINUOUS
  0
ENDTAB
  0
TABLE
  2
STYLE
  5
3340
100
AcDbSymbolTable
 70
     2
  0
STYLE
  5
334C
100
AcDbSymbolTableRecord
100
AcDbTextStyleTableRecord
  2
STANDARD
 70
     0
 40
0.0
 41
1.0
 50
0.0
 71
     0
 42
1000.0
  3
txt
  4

  0
STYLE
  5
335A
100
AcDbSymbolTableRecord
100
AcDbTextStyleTableRecord
  2
EXTFONT
 70
     0
 40
0.0
 41
1.0
 50
0.0
 71
     0
 42
700.0
  3
txt.shx
  4
EXTFONT.SHX
  0
ENDTAB
  0
TABLE
  2
VIEW
  5
3343
100
AcDbSymbolTable
 70
     0
  0
ENDTAB
  0
TABLE
  2
UCS
  5
3344
100
AcDbSymbolTable
 70
     0
  0
ENDTAB
  0
TABLE
  2
APPID
  5
3346
100
AcDbSymbolTable
 70
     5
  0
APPID
  5
334D
100
AcDbSymbolTableRecord
100
AcDbRegAppTableRecord
  2
ACAD
 70
     0
  0
APPID
  5
335F
100
AcDbSymbolTableRecord
100
AcDbRegAppTableRecord
  2
CONTENTTABDATA
 70
     0
  0
APPID
  5
3360
100
AcDbSymbolTableRecord
100
AcDbRegAppTableRecord
  2
CONTENTCURRENTTAB
 70
     0
  0
APPID
  5
3361
100
AcDbSymbolTableRecord
100
AcDbRegAppTableRecord
  2
CONTENTBLOCKDESCRIPTION
 70
     0
  0
APPID
  5
3362
100
AcDbSymbolTableRecord
100
AcDbRegAppTableRecord
  2
CONTENTBLOCKICON
 70
     0
  0
ENDTAB
  0
TABLE
  2
DIMSTYLE
  5
3347
100
AcDbSymbolTable
 70
     2
  0
DIMSTYLE
105
3363
100
AcDbSymbolTableRecord
100
AcDbDimStyleTableRecord
  2
CADLOG
 70
     0
  3

  4

  5

  6

  7

 40
1.0
 41
100.0
 42
100.0
 43
100.0
 44
100.0
 45
1.0
 46
0.0
 47
0.0
 48
0.0
140
200.0
141
0.0
142
0.0
143
25.4
144
1.0
145
0.0
146
1.0
147
0.0
 71
     0
 72
     0
 73
     0
 74
     0
 75
     0
 76
     0
 77
     1
 78
     8
170
     0
171
     2
172
     0
173
     0
174
     0
175
     0
176
     0
177
     0
178
     0
270
     2
271
     2
272
     2
273
     2
274
     2
340
335A
275
     0
280
     0
281
     0
282
     0
283
     1
284
     8
285
     8
286
     8
287
     5
288
     0
  0
DIMSTYLE
105
3364
100
AcDbSymbolTableRecord
100
AcDbDimStyleTableRecord
  2
STANDARD
 70
     0
  3

  4

  5

  6

  7

 40
1.0
 41
0.18
 42
0.0625
 43
0.38
 44
0.18
 45
0.0
 46
0.0
 47
0.0
 48
0.0
140
0.18
141
0.09
142
0.0
143
25.4
144
1.0
145
0.0
146
1.0
147
0.09
 71
     0
 72
     0
 73
     1
 74
     1
 75
     0
 76
     0
 77
     0
 78
     0
170
     0
171
     2
172
     0
173
     0
174
     0
175
     0
176
     0
177
     0
178
     0
270
     2
271
     2
272
     2
273
     2
274
     2
340
335A
275
     0
280
     0
281
     0
282
     0
283
     1
284
     8
285
     8
286
     8
287
     5
288
     0
  0
ENDTAB
  0
TABLE
  2
BLOCK_RECORD
  5
333E
100
AcDbSymbolTable
 70
     1
  0
BLOCK_RECORD
  5
3354
100
AcDbSymbolTableRecord
100
AcDbBlockTableRecord
  2
*MODEL_SPACE
  0
BLOCK_RECORD
  5
3351
100
AcDbSymbolTableRecord
100
AcDbBlockTableRecord
  2
*PAPER_SPACE
  0
BLOCK_RECORD
  5
3359
100
AcDbSymbolTableRecord
100
AcDbBlockTableRecord
  2
PP1
  0
ENDTAB
  0
ENDSEC
  0
SECTION
  2
BLOCKS
  0
BLOCK
  5
336D
100
AcDbEntity
  8
0
100
AcDbBlockBegin
  2
*MODEL_SPACE
 70
     0
 10
0.0
 20
0.0
 30
0.0
  3
*MODEL_SPACE
  1

  0
ENDBLK
  5
336E
100
AcDbEntity
  8
0
100
AcDbBlockEnd
  0
BLOCK
  5
336B
100
AcDbEntity
 67
     1
  8
0
100
AcDbBlockBegin
  2
*PAPER_SPACE
 70
     0
 10
0.0
 20
0.0
 30
0.0
  3
*PAPER_SPACE
  1

  0
ENDBLK
  5
336C
100
AcDbEntity
 67
     1
  8
0
100
AcDbBlockEnd
  0
BLOCK
  5
2A
100
AcDbEntity
  8
PV
100
AcDbBlockBegin
  2
PP1
 70
     2
 10
0.0
 20
0.0
 30
0.0
  3
PP1
  1

  0
ENDBLK
  5
2B
100
AcDbEntity
  8
PV
100
AcDbBlockEnd
  0
ENDSEC
  0
SECTION
  2
ENTITIES
  0
INSERT
  5
76
100
AcDbEntity
  8
PV
  6
BYBLOCK
 62
     0
100
AcDbBlockReference
  2
PP1
 10
0.0
 20
0.0
 30
0.0
  0
INSERT
  5
77
100
AcDbEntity
  8
0
  6
CONTINUOUS
100
AcDbBlockReference
 66
     1
  2
PP1
 10
0.0
 20
0.0
 30
0.0
  0
SEQEND
  5
78
100
AcDbEntity
  8
0
  6
CONTINUOUS
  0
INSERT
  5
252
100
AcDbEntity
  8
0
100
AcDbBlockReference
 66
     1
  2
PP1
 10
19406.981215
 20
11556.786332
 30
0.0
  0
SEQEND
  5
253
100
AcDbEntity
  8
0
  0
TEXT
  5
281D
100
AcDbEntity
  8
0
100
AcDbText
 10
71906.405677
 20
6293.632659
 30
0.0
 40
700.0
  1
AR400120P
  7
EXTFONT
100
AcDbText
  0
TEXT
  5
281E
100
AcDbEntity
  8
0
100
AcDbText
 10
71698.112751
 20
5252.847899
 30
0.0
 40
700.0
  1
AR-4000M
  7
EXTFONT
100
AcDbText
  0
TEXT
  5
281F
100
AcDbEntity
  8
0
100
AcDbText
 10
71767.543688
 20
4258.320279
 30
0.0
 40
700.0
  1
LJ
  7
EXTFONT
100
AcDbText
  0
LINE
  5
2820
100
AcDbEntity
  8
0
100
AcDbLine
 10
66009.266987
 20
4152.434915
 30
0.0
 11
81009.266987
 21
4152.434915
 31
0.0
  0
LINE
  5
2821
100
AcDbEntity
  8
0
100
AcDbLine
 10
66009.266987
 20
5152.434915
 30
0.0
 11
81009.266987
 21
5152.434915
 31
0.0
  0
LINE
  5
2822
100
AcDbEntity
  8
0
100
AcDbLine
 10
66009.266987
 20
6152.434915
 30
0.0
 11
81009.266987
 21
6152.434915
 31
0.0
  0
LINE
  5
2823
100
AcDbEntity
  8
0
100
AcDbLine
 10
66009.266987
 20
7152.434915
 30
0.0
 11
81009.266987
 21
7152.434915
 31
0.0
  0
TEXT
  5
2824
100
AcDbEntity
  8
0
100
AcDbText
 10
66259.352713
 20
5299.105039
 30
0.0
 40
800.0
  1
機　　　種
  7
EXTFONT
100
AcDbText
  0
TEXT
  5
2825
100
AcDbEntity
  8
0
100
AcDbText
 10
66282.496435
 20
6316.761193
 30
0.0
 40
800.0
  1
ファイル名
  7
EXTFONT
100
AcDbText
  0
TEXT
  5
2826
100
AcDbEntity
  8
0
100
AcDbText
 10
66236.209105
 20
4212.06321
 30
0.0
 40
800.0
  1
スペック
  7
EXTFONT
100
AcDbText
  0
LINE
  5
2827
100
AcDbEntity
  8
0
100
AcDbLine
 10
66009.266987
 20
7152.434915
 30
0.0
 11
66009.266987
 21
4152.434915
 31
0.0
  0
LINE
  5
2828
100
AcDbEntity
  8
0
100
AcDbLine
 10
71536.107154
 20
7152.434915
 30
0.0
 11
71536.107154
 21
4152.434915
 31
0.0
  0
LINE
  5
2829
100
AcDbEntity
  8
0
100
AcDbLine
 10
81009.266987
 20
7152.434915
 30
0.0
 11
81009.266987
 21
4152.434915
 31
0.0
  0
LINE
  5
29D7
100
AcDbEntity
  8
LJ
 62
     5
100
AcDbLine
 10
38883.163921
 20
46160.162591
 30
0.0
 11
39258.060877
 21
46052.649652
 31
0.0
  0
LINE
  5
29D8
100
AcDbEntity
  8
LJ
 62
     5
100
AcDbLine
 10
38521.928586
 20
44900.147114
 30
0.0
 11
38896.825542
 21
44792.634175
 31
0.0
  0
POINT
  5
29D9
100
AcDbEntity
  8
LJ
 62
     5
100
AcDbPoint
 10
38500.261984
 20
45588.113228
 30
0.0
  0
LINE
  5
29DA
100
AcDbEntity
  8
LJ
 62
     5
100
AcDbLine
 10
39192.933177
 20
44661.341986
 30
0.0
 11
38922.262206
 21
46195.390054
 31
0.0
  0
LINE
  5
29DB
100
AcDbEntity
  8
LJ
 62
     5
100
AcDbLine
 10
39578.802899
 20
46007.098742
 30
0.0
 11
38536.40467
 21
44849.534043
 31
0.0
  0
LINE
  5
29DC
100
AcDbEntity
  8
LJ
 62
     5
100
AcDbLine
 10
38369.063344
 20
45625.725882
 30
0.0
 11
39168.242076
 21
45396.6135
 31
0.0
  0
LINE
  5
29DD
100
AcDbEntity
  8
LJ
 62
     5
100
AcDbLine
 10
38829.313587
 20
46274.814988
 30
0.0
 11
47236.502795
 21
43864.112151
 31
0.0
  0
LINE
  5
29DE
100
AcDbEntity
  8
LJ
 62
     5
100
AcDbLine
 10
38415.449309
 20
44831.404477
 30
0.0
 11
46822.611348
 21
42420.717683
 31
0.0
  0
LINE
  5
29DF
100
AcDbEntity
  8
LJ
 62
     5
100
AcDbLine
 10
38719.835604
 20
46353.901981
 30
0.0
 11
38266.598327
 21
44773.183818
 31
0.0
  0
LINE
  5
29E0
100
AcDbEntity
  8
LJ
 62
     5
100
AcDbLine
 10
38870.807473
 20
46153.305608
 30
0.0
 11
38515.071603
 21
44912.503561
 31
0.0
  0
LINE
  5
29E1
100
AcDbEntity
  8
LJ
 62
     5
100
AcDbLine
 10
38472.235702
 20
44920.845357
 30
0.0
 11
38830.207567
 21
46168.873767
 31
0.0
  0
ARC
  5
29E2
100
AcDbEntity
  8
LJ
 62
     5
100
AcDbCircle
 10
38307.393263
 20
44915.214143
 30
0.0
 40
74.9999
100
AcDbArc
 50
244.403
 51
83.5975
  0
ARC
  5
29E3
100
AcDbEntity
  8
LJ
 62
     5
100
AcDbCircle
 10
38307.393263
 20
44915.214143
 30
0.0
 40
75.0
100
AcDbArc
 50
64.4019
 51
263.598
  0
LINE
  5
29E4
100
AcDbEntity
  8
LJ
 62
     5
100
AcDbLine
 10
38382.164758
 20
44831.401771
 30
0.0
 11
38299.007236
 21
44840.737002
 31
0.0
  0
LINE
  5
29E5
100
AcDbEntity
  8
LJ
 62
     5
100
AcDbLine
 10
38199.52573
 20
44883.733747
 30
0.0
 11
38274.996541
 21
44847.561704
 31
0.0
  0
LINE
  5
29E6
100
AcDbEntity
  8
LJ
 62
     5
100
AcDbLine
 10
38515.071603
 20
44912.503561
 30
0.0
 11
38521.928586
 21
44900.147114
 31
0.0
  0
LINE
  5
29E7
100
AcDbEntity
  8
LJ
 62
     5
100
AcDbLine
 10
38419.27367
 20
44830.316117
 30
0.0
 11
38421.467699
 21
44829.678751
 31
0.0
  0
LINE
  5
29E8
100
AcDbEntity
  8
LJ
 62
     5
100
AcDbLine
 10
38443.443734
 20
44929.057776
 30
0.0
 11
38517.666042
 21
44907.784569
 31
0.0
  0
LINE
  5
29E9
100
AcDbEntity
  8
LJ
 62
     5
100
AcDbLine
 10
38411.543742
 20
44817.780639
 30
0.0
 11
38447.377327
 21
44942.779376
 31
0.0
  0
LINE
  5
29EA
100
AcDbEntity
  8
LJ
 62
     5
100
AcDbLine
 10
38185.319899
 20
44950.197905
 30
0.0
 11
38410.563149
 21
44885.66715
 31
0.0
  0
LINE
  5
29EB
100
AcDbEntity
  8
LJ
 62
     5
100
AcDbLine
 10
38415.260797
 20
44946.694538
 30
0.0
 11
38339.789985
 21
44982.866581
 31
0.0
  0
LINE
  5
29EC
100
AcDbEntity
  8
LJ
 62
     5
100
AcDbLine
 10
38234.034076
 20
45003.93522
 30
0.0
 11
38198.200492
 21
44878.936483
 31
0.0
  0
LINE
  5
29ED
100
AcDbEntity
  8
LJ
 62
     5
100
AcDbLine
 10
38232.609582
 20
44999.125769
 30
0.0
 11
38315.767104
 21
44989.790538
 31
0.0
  0
LINE
  5
29EE
100
AcDbEntity
  8
LJ
 62
     5
100
AcDbLine
 10
38234.034076
 20
45003.93522
 30
0.0
 11
38203.230597
 21
45012.746901
 31
0.0
  0
LINE
  5
29EF
100
AcDbEntity
  8
LJ
 62
     5
100
AcDbLine
 10
38198.200492
 20
44878.936483
 30
0.0
 11
38167.397013
 21
44887.748164
 31
0.0
  0
LINE
  5
29F0
100
AcDbEntity
  8
LJ
 62
     5
100
AcDbLine
 10
38203.230597
 20
45012.746901
 30
0.0
 11
38167.397013
 21
44887.748164
 31
0.0
  0
LINE
  5
29F1
100
AcDbEntity
  8
LJ
 62
     5
100
AcDbLine
 10
38380.740264
 20
44826.59232
 30
0.0
 11
38416.573848
 21
44951.591057
 31
0.0
  0
LINE
  5
29F2
100
AcDbEntity
  8
LJ
 62
     5
100
AcDbLine
 10
38416.573848
 20
44951.591057
 30
0.0
 11
38447.377327
 21
44942.779376
 31
0.0
  0
LINE
  5
29F3
100
AcDbEntity
  8
LJ
 62
     5
100
AcDbLine
 10
38380.740264
 20
44826.59232
 30
0.0
 11
38411.543742
 21
44817.780639
 31
0.0
  0
ARC
  5
29F4
100
AcDbEntity
  8
LJ
 62
     5
100
AcDbCircle
 10
38898.398282
 20
46303.588266
 30
0.0
 40
37.5
100
AcDbArc
 50
344.0
 51
164.0
  0
LINE
  5
29F5
100
AcDbEntity
  8
LJ
 62
     5
100
AcDbLine
 10
38883.163921
 20
46160.162591
 30
0.0
 11
38870.807473
 21
46153.305608
 31
0.0
  0
LINE
  5
29F6
100
AcDbEntity
  8
LJ
 62
     5
100
AcDbLine
 10
38921.596459
 20
46248.404078
 30
0.0
 11
38934.451545
 21
46293.25016
 31
0.0
  0
LINE
  5
29F7
100
AcDbEntity
  8
LJ
 62
     5
100
AcDbLine
 10
38797.413465
 20
46163.537395
 30
0.0
 11
38833.247049
 21
46288.536132
 31
0.0
  0
LINE
  5
29F8
100
AcDbEntity
  8
LJ
 62
     5
100
AcDbLine
 10
38801.321087
 20
46177.168403
 30
0.0
 11
38875.526466
 21
46155.900047
 31
0.0
  0
LINE
  5
29F9
100
AcDbEntity
  8
LJ
 62
     5
100
AcDbLine
 10
38862.363961
 20
46313.974202
 30
0.0
 11
38849.540003
 21
46269.076696
 31
0.0
  0
ARC
  5
29FA
100
AcDbEntity
  8
LJ
 62
     5
100
AcDbCircle
 10
38693.36224
 20
46260.983086
 30
0.0
 40
74.9999
100
AcDbArc
 50
244.403
 51
83.5975
  0
LINE
  5
29FB
100
AcDbEntity
  8
LJ
 62
     5
100
AcDbLine
 10
38589.199574
 20
46358.515845
 30
0.0
 11
38553.36599
 21
46233.517108
 31
0.0
  0
LINE
  5
29FC
100
AcDbEntity
  8
LJ
 62
     5
100
AcDbLine
 10
38618.578559
 20
46344.894712
 30
0.0
 11
38701.636826
 21
46335.547295
 31
0.0
  0
LINE
  5
29FD
100
AcDbEntity
  8
LJ
 62
     5
100
AcDbLine
 10
38619.903798
 20
46349.691976
 30
0.0
 11
38589.199574
 21
46358.515845
 31
0.0
  0
LINE
  5
29FE
100
AcDbEntity
  8
LJ
 62
     5
100
AcDbLine
 10
38584.070214
 20
46224.693239
 30
0.0
 11
38553.36599
 21
46233.517108
 31
0.0
  0
LINE
  5
29FF
100
AcDbEntity
  8
LJ
 62
     5
100
AcDbLine
 10
38585.494707
 20
46229.50269
 30
0.0
 11
38660.965518
 21
46193.330648
 31
0.0
  0
LINE
  5
2A00
100
AcDbEntity
  8
LJ
 62
     5
100
AcDbLine
 10
38619.903798
 20
46349.691976
 30
0.0
 11
38584.070214
 21
46224.693239
 31
0.0
  0
ARC
  5
2A01
100
AcDbEntity
  8
LJ
 62
     5
100
AcDbCircle
 10
38693.250799
 20
46261.070154
 30
0.0
 40
75.0
100
AcDbArc
 50
64.4019
 51
263.598
  0
LINE
  5
2A02
100
AcDbEntity
  8
LJ
 62
     5
100
AcDbLine
 10
38768.03448
 20
46177.158527
 30
0.0
 11
38684.876958
 21
46186.493758
 31
0.0
  0
LINE
  5
2A03
100
AcDbEntity
  8
LJ
 62
     5
100
AcDbLine
 10
38766.609986
 20
46172.349076
 30
0.0
 11
38802.44357
 21
46297.347813
 31
0.0
  0
LINE
  5
2A04
100
AcDbEntity
  8
LJ
 62
     5
100
AcDbLine
 10
38801.130519
 20
46292.451295
 30
0.0
 11
38725.659708
 21
46328.623337
 31
0.0
  0
LINE
  5
2A05
100
AcDbEntity
  8
LJ
 62
     5
100
AcDbLine
 10
38802.44357
 20
46297.347813
 30
0.0
 11
38833.247049
 21
46288.536132
 31
0.0
  0
LINE
  5
2A06
100
AcDbEntity
  8
LJ
 62
     5
100
AcDbLine
 10
38766.609986
 20
46172.349076
 30
0.0
 11
38797.413465
 21
46163.537395
 31
0.0
  0
LINE
  5
2A07
100
AcDbEntity
  8
LJ
 62
     5
100
AcDbLine
 10
39264.209972
 20
45369.103993
 30
0.0
 11
47281.754496
 21
43070.060155
 31
0.0
  0
LINE
  5
2A08
100
AcDbEntity
  8
LJ
 62
     5
100
AcDbLine
 10
38898.512998
 20
44798.584174
 30
0.0
 11
46850.633072
 21
42518.355388
 31
0.0
  0
LINE
  5
2A09
100
AcDbEntity
  8
LJ
 62
     5
100
AcDbLine
 10
39256.373421
 20
46046.699653
 30
0.0
 11
47208.481067
 21
43766.47443
 31
0.0
  0
LINE
  5
2A0A
100
AcDbEntity
  8
LJ
 62
     5
100
AcDbLine
 10
39258.060877
 20
46052.649652
 30
0.0
 11
38896.825542
 21
44792.634175
 31
0.0
  0
LINE
  5
2A0B
100
AcDbEntity
  8
LJ
 62
     5
100
AcDbLine
 10
46821.750822
 20
42526.649308
 30
0.0
 11
47179.7105
 21
43774.776973
 31
0.0
  0
LINE
  5
2A0C
100
AcDbEntity
  8
LJ
 62
     5
100
AcDbLine
 10
46767.035904
 20
42542.297879
 30
0.0
 11
47124.896327
 21
43790.413357
 31
0.0
  0
LINE
  5
2A0D
100
AcDbEntity
  8
LJ
 62
     5
100
AcDbLine
 10
47371.249185
 20
43873.152946
 30
0.0
 11
46918.011907
 21
42292.434783
 31
0.0
  0
POINT
  5
2A0E
100
AcDbEntity
  8
LJ
 62
     5
100
AcDbPoint
 10
47151.674586
 20
43107.36078
 30
0.0
  0
LINE
  5
2A0F
100
AcDbEntity
  8
LJ
 62
     5
100
AcDbLine
 10
46456.199094
 20
44035.043097
 30
0.0
 11
46726.77081
 21
42500.982842
 31
0.0
  0
LINE
  5
2A10
100
AcDbEntity
  8
LJ
 62
     5
100
AcDbLine
 10
46070.230117
 20
42689.274154
 30
0.0
 11
47112.739787
 21
43846.751785
 31
0.0
  0
ARC
  5
2A11
100
AcDbEntity
  8
LJ
 62
     5
100
AcDbCircle
 10
46958.695403
 20
42434.552176
 30
0.0
 40
74.9999
100
AcDbArc
 50
244.403
 51
83.5975
  0
LINE
  5
2A12
100
AcDbEntity
  8
LJ
 62
     5
100
AcDbLine
 10
46850.82787
 20
42403.07178
 30
0.0
 11
46926.298681
 21
42366.899738
 31
0.0
  0
ARC
  5
2A13
100
AcDbEntity
  8
LJ
 62
     5
100
AcDbCircle
 10
46958.695403
 20
42434.552176
 30
0.0
 40
75.0
100
AcDbArc
 50
64.4019
 51
263.598
  0
LINE
  5
2A14
100
AcDbEntity
  8
LJ
 62
     5
100
AcDbLine
 10
47033.578338
 20
42350.652736
 30
0.0
 11
46950.420816
 21
42359.987967
 31
0.0
  0
LINE
  5
2A15
100
AcDbEntity
  8
LJ
 62
     5
100
AcDbLine
 10
46883.923909
 20
42518.364548
 30
0.0
 11
46967.081431
 21
42509.029317
 31
0.0
  0
LINE
  5
2A16
100
AcDbEntity
  8
LJ
 62
     5
100
AcDbLine
 10
46849.502631
 20
42398.274516
 30
0.0
 11
46885.249147
 21
42523.161812
 31
0.0
  0
LINE
  5
2A17
100
AcDbEntity
  8
LJ
 62
     5
100
AcDbLine
 10
47032.153845
 20
42345.843285
 30
0.0
 11
47067.987429
 21
42470.842022
 31
0.0
  0
LINE
  5
2A18
100
AcDbEntity
  8
LJ
 62
     5
100
AcDbLine
 10
47062.858069
 20
42337.019417
 30
0.0
 11
47098.691653
 21
42462.018154
 31
0.0
  0
LINE
  5
2A19
100
AcDbEntity
  8
LJ
 62
     5
100
AcDbLine
 10
47067.987429
 20
42470.842022
 30
0.0
 11
47098.691653
 21
42462.018154
 31
0.0
  0
LINE
  5
2A1A
100
AcDbEntity
  8
LJ
 62
     5
100
AcDbLine
 10
47032.153845
 20
42345.843285
 30
0.0
 11
47062.858069
 21
42337.019417
 31
0.0
  0
LINE
  5
2A1B
100
AcDbEntity
  8
LJ
 62
     5
100
AcDbLine
 10
47066.66219
 20
42466.044758
 30
0.0
 11
46991.203566
 21
42502.117546
 31
0.0
  0
LINE
  5
2A1C
100
AcDbEntity
  8
LJ
 62
     5
100
AcDbLine
 10
46818.699153
 20
42407.086197
 30
0.0
 11
46854.544924
 21
42531.98568
 31
0.0
  0
LINE
  5
2A1D
100
AcDbEntity
  8
LJ
 62
     5
100
AcDbLine
 10
46818.805698
 20
42421.808923
 30
0.0
 11
46816.611669
 21
42422.446289
 31
0.0
  0
LINE
  5
2A1E
100
AcDbEntity
  8
LJ
 62
     5
100
AcDbLine
 10
46849.502631
 20
42398.274516
 30
0.0
 11
46818.699153
 21
42407.086197
 31
0.0
  0
LINE
  5
2A1F
100
AcDbEntity
  8
LJ
 62
     5
100
AcDbLine
 10
46885.249147
 20
42523.161812
 30
0.0
 11
46854.544924
 21
42531.98568
 31
0.0
  0
LINE
  5
2A20
100
AcDbEntity
  8
LJ
 62
     5
100
AcDbLine
 10
47418.023567
 20
43691.600042
 30
0.0
 11
47453.857151
 21
43816.598779
 31
0.0
  0
LINE
  5
2A21
100
AcDbEntity
  8
LJ
 62
     5
100
AcDbLine
 10
47418.023567
 20
43691.600042
 30
0.0
 11
47448.827045
 21
43682.78836
 31
0.0
  0
LINE
  5
2A22
100
AcDbEntity
  8
LJ
 62
     5
100
AcDbLine
 10
47452.531913
 20
43811.801515
 30
0.0
 11
47377.073288
 21
43847.874303
 31
0.0
  0
ARC
  5
2A23
100
AcDbEntity
  8
LJ
 62
     5
100
AcDbCircle
 10
47344.565125
 20
43780.308932
 30
0.0
 40
74.9999
100
AcDbArc
 50
244.403
 51
83.5975
  0
LINE
  5
2A24
100
AcDbEntity
  8
LJ
 62
     5
100
AcDbLine
 10
47269.793631
 20
43864.121304
 30
0.0
 11
47352.951153
 21
43854.786073
 31
0.0
  0
LINE
  5
2A25
100
AcDbEntity
  8
LJ
 62
     5
100
AcDbLine
 10
47236.697592
 20
43748.828537
 30
0.0
 11
47312.168403
 21
43712.656494
 31
0.0
  0
LINE
  5
2A26
100
AcDbEntity
  8
LJ
 62
     5
100
AcDbLine
 10
47271.218124
 20
43868.930755
 30
0.0
 11
47235.372353
 21
43744.031273
 31
0.0
  0
ARC
  5
2A27
100
AcDbEntity
  8
LJ
 62
     5
100
AcDbCircle
 10
47344.664379
 20
43780.321119
 30
0.0
 40
75.0
100
AcDbArc
 50
64.4019
 51
263.598
  0
LINE
  5
2A28
100
AcDbEntity
  8
LJ
 62
     5
100
AcDbLine
 10
47419.448061
 20
43696.409493
 30
0.0
 11
47336.290539
 21
43705.744724
 31
0.0
  0
LINE
  5
2A29
100
AcDbEntity
  8
LJ
 62
     5
100
AcDbLine
 10
47448.827045
 20
43682.78836
 30
0.0
 11
47484.66063
 21
43807.787097
 31
0.0
  0
LINE
  5
2A2A
100
AcDbEntity
  8
LJ
 62
     5
100
AcDbLine
 10
47453.857151
 20
43816.598779
 30
0.0
 11
47484.66063
 21
43807.787097
 31
0.0
  0
LINE
  5
2A2B
100
AcDbEntity
  8
LJ
 62
     5
100
AcDbLine
 10
47240.414646
 20
43877.742436
 30
0.0
 11
47204.568875
 21
43752.842954
 31
0.0
  0
LINE
  5
2A2C
100
AcDbEntity
  8
LJ
 62
     5
100
AcDbLine
 10
47271.218124
 20
43868.930755
 30
0.0
 11
47240.414646
 21
43877.742436
 31
0.0
  0
LINE
  5
2A2D
100
AcDbEntity
  8
LJ
 62
     5
100
AcDbLine
 10
47235.372353
 20
43744.031273
 30
0.0
 11
47204.568875
 21
43752.842954
 31
0.0
  0
LINE
  5
2A2E
100
AcDbEntity
  8
LJ
 62
     5
100
AcDbLine
 10
50244.6746
 20
20569.340393
 30
0.0
 11
45590.309663
 21
21333.954675
 31
0.0
  0
LINE
  5
2A2F
100
AcDbEntity
  8
LJ
 62
     5
100
AcDbLine
 10
50412.800679
 20
20644.69279
 30
0.0
 11
45618.515147
 21
21432.232666
 31
0.0
  0
LINE
  5
2A30
100
AcDbEntity
  8
LJ
 62
     5
100
AcDbLine
 10
45506.935486
 20
22139.257159
 30
0.0
 11
50812.588145
 21
20617.913702
 31
0.0
  0
LINE
  5
2A31
100
AcDbEntity
  8
LJ
 62
     5
100
AcDbLine
 10
45976.257107
 20
22679.684027
 30
0.0
 11
50459.350314
 21
20806.993664
 31
0.0
  0
LINE
  5
2A32
100
AcDbEntity
  8
LJ
 62
     5
100
AcDbLine
 10
46004.407494
 20
22778.032792
 30
0.0
 11
50356.68323
 21
20960.011601
 31
0.0
  0
LINE
  5
2A33
100
AcDbEntity
  8
LJ
 62
     5
100
AcDbLine
 10
45993.610037
 20
22809.261982
 30
0.0
 11
46111.300639
 21
22857.564901
 31
0.0
  0
LINE
  5
2A34
100
AcDbEntity
  8
LJ
 62
     5
100
AcDbLine
 10
46216.671933
 20
22688.647345
 30
0.0
 11
46015.856127
 21
22772.499073
 31
0.0
  0
POINT
  5
2A35
100
AcDbEntity
  8
LJ
 62
     5
100
AcDbPoint
 10
45675.292893
 20
22090.982337
 30
0.0
  0
LINE
  5
2A36
100
AcDbEntity
  8
LJ
 62
     5
100
AcDbLine
 10
45903.694298
 20
22887.587839
 30
0.0
 11
45447.569714
 21
21296.742314
 31
0.0
  0
LINE
  5
2A37
100
AcDbEntity
  8
LJ
 62
     5
100
AcDbLine
 10
46003.882352
 20
22668.162125
 30
0.0
 11
45648.146481
 21
21427.360078
 31
0.0
  0
LINE
  5
2A38
100
AcDbEntity
  8
LJ
 62
     5
100
AcDbLine
 10
45894.807736
 20
22856.573664
 30
0.0
 11
45455.669148
 21
21325.141067
 31
0.0
  0
LINE
  5
2A39
100
AcDbEntity
  8
LJ
 62
     5
100
AcDbLine
 10
45579.289511
 20
21322.688317
 30
0.0
 11
45586.4915
 21
21320.650831
 31
0.0
  0
LINE
  5
2A3A
100
AcDbEntity
  8
LJ
 62
     5
100
AcDbLine
 10
45591.633048
 20
21454.374182
 30
0.0
 11
45622.337271
 21
21445.550314
 31
0.0
  0
LINE
  5
2A3B
100
AcDbEntity
  8
LJ
 62
     5
100
AcDbLine
 10
45555.787277
 20
21329.474699
 30
0.0
 11
45586.4915
 21
21320.650831
 31
0.0
  0
LINE
  5
2A3C
100
AcDbEntity
  8
LJ
 62
     5
100
AcDbLine
 10
45555.787277
 20
21329.474699
 30
0.0
 11
45469.652243
 21
21344.187144
 31
0.0
  0
LINE
  5
2A3D
100
AcDbEntity
  8
LJ
 62
     5
100
AcDbLine
 10
45591.633048
 20
21454.374182
 30
0.0
 11
45510.79721
 21
21487.469458
 31
0.0
  0
LINE
  5
2A3E
100
AcDbEntity
  8
LJ
 62
     5
100
AcDbLine
 10
45622.337271
 20
21445.550314
 30
0.0
 11
45586.4915
 21
21320.650831
 31
0.0
  0
LINE
  5
2A3F
100
AcDbEntity
  8
LJ
 62
     5
100
AcDbLine
 10
45373.148249
 20
21381.806676
 30
0.0
 11
45342.344771
 21
21390.618357
 31
0.0
  0
LINE
  5
2A40
100
AcDbEntity
  8
LJ
 62
     5
100
AcDbLine
 10
45408.981833
 20
21506.805413
 30
0.0
 11
45373.148249
 21
21381.806676
 31
0.0
  0
LINE
  5
2A41
100
AcDbEntity
  8
LJ
 62
     5
100
AcDbLine
 10
45378.178355
 20
21515.617094
 30
0.0
 11
45342.344771
 21
21390.618357
 31
0.0
  0
LINE
  5
2A42
100
AcDbEntity
  8
LJ
 62
     5
100
AcDbLine
 10
45408.981833
 20
21506.805413
 30
0.0
 11
45378.178355
 21
21515.617094
 31
0.0
  0
ARC
  5
2A43
100
AcDbEntity
  8
LJ
 62
     5
100
AcDbCircle
 10
45482.341021
 20
21418.084335
 30
0.0
 40
75.0
100
AcDbArc
 50
244.402
 51
83.598
  0
LINE
  5
2A44
100
AcDbEntity
  8
LJ
 62
     5
100
AcDbLine
 10
45407.55734
 20
21501.995962
 30
0.0
 11
45490.714862
 21
21492.660731
 31
0.0
  0
LINE
  5
2A45
100
AcDbEntity
  8
LJ
 62
     5
100
AcDbLine
 10
45374.473488
 20
21386.60394
 30
0.0
 11
45449.944299
 21
21350.431897
 31
0.0
  0
ARC
  5
2A46
100
AcDbEntity
  8
LJ
 62
     5
100
AcDbCircle
 10
45482.341021
 20
21418.084335
 30
0.0
 40
74.9999
100
AcDbArc
 50
67.7211
 51
260.279
  0
LINE
  5
2A47
100
AcDbEntity
  8
LJ
 62
     5
100
AcDbLine
 10
45383.026361
 20
21446.593425
 30
0.0
 11
45604.414386
 21
21383.100572
 31
0.0
  0
LINE
  5
2A48
100
AcDbEntity
  8
LJ
 62
     5
100
AcDbLine
 10
45766.118283
 20
22064.990021
 30
0.0
 11
45479.211789
 21
22147.256574
 31
0.0
  0
LINE
  5
2A49
100
AcDbEntity
  8
LJ
 62
     5
100
AcDbLine
 10
45989.806824
 20
22800.02967
 30
0.0
 11
46007.651545
 21
22792.548632
 31
0.0
  0
LINE
  5
2A4A
100
AcDbEntity
  8
LJ
 62
     5
100
AcDbLine
 10
46007.651545
 20
22792.548632
 30
0.0
 11
46015.856127
 21
22772.499073
 31
0.0
  0
LINE
  5
2A4B
100
AcDbEntity
  8
LJ
 62
     5
100
AcDbLine
 10
45993.610037
 20
22809.261982
 30
0.0
 11
45989.806824
 21
22800.02967
 31
0.0
  0
LINE
  5
2A4C
100
AcDbEntity
  8
LJ
 62
     5
100
AcDbLine
 10
45977.50277
 20
22800.130938
 30
0.0
 11
46008.206993
 21
22791.30707
 31
0.0
  0
LINE
  5
2A4D
100
AcDbEntity
  8
LJ
 62
     5
100
AcDbLine
 10
46008.206993
 20
22791.30707
 30
0.0
 11
45972.460477
 21
22666.419775
 31
0.0
  0
LINE
  5
2A4E
100
AcDbEntity
  8
LJ
 62
     5
100
AcDbLine
 10
45977.50277
 20
22800.130938
 30
0.0
 11
45896.666932
 21
22833.226215
 31
0.0
  0
LINE
  5
2A4F
100
AcDbEntity
  8
LJ
 62
     5
100
AcDbLine
 10
45941.656999
 20
22675.231456
 30
0.0
 11
45972.460477
 21
22666.419775
 31
0.0
  0
LINE
  5
2A50
100
AcDbEntity
  8
LJ
 62
     5
100
AcDbLine
 10
45941.656999
 20
22675.231456
 30
0.0
 11
45855.62122
 21
22689.956087
 31
0.0
  0
LINE
  5
2A51
100
AcDbEntity
  8
LJ
 62
     5
100
AcDbLine
 10
45759.017971
 20
22727.563432
 30
0.0
 11
45728.214493
 21
22736.375113
 31
0.0
  0
LINE
  5
2A52
100
AcDbEntity
  8
LJ
 62
     5
100
AcDbLine
 10
45794.851556
 20
22852.562169
 30
0.0
 11
45764.048077
 21
22861.37385
 31
0.0
  0
LINE
  5
2A53
100
AcDbEntity
  8
LJ
 62
     5
100
AcDbLine
 10
45764.048077
 20
22861.37385
 30
0.0
 11
45728.214493
 21
22736.375113
 31
0.0
  0
LINE
  5
2A54
100
AcDbEntity
  8
LJ
 62
     5
100
AcDbLine
 10
45794.851556
 20
22852.562169
 30
0.0
 11
45759.017971
 21
22727.563432
 31
0.0
  0
ARC
  5
2A55
100
AcDbEntity
  8
LJ
 62
     5
100
AcDbCircle
 10
45868.210743
 20
22763.841092
 30
0.0
 40
75.0
100
AcDbArc
 50
244.402
 51
83.598
  0
LINE
  5
2A56
100
AcDbEntity
  8
LJ
 62
     5
100
AcDbLine
 10
45760.442465
 20
22732.372883
 30
0.0
 11
45835.814021
 21
22696.188653
 31
0.0
  0
LINE
  5
2A57
100
AcDbEntity
  8
LJ
 62
     5
100
AcDbLine
 10
45793.427062
 20
22847.752718
 30
0.0
 11
45876.584584
 21
22838.417487
 31
0.0
  0
ARC
  5
2A58
100
AcDbEntity
  8
LJ
 62
     5
100
AcDbCircle
 10
45868.210743
 20
22763.841092
 30
0.0
 40
74.9999
100
AcDbArc
 50
67.7211
 51
260.279
  0
LINE
  5
2A59
100
AcDbEntity
  8
LJ
 62
     5
100
AcDbLine
 10
46434.718324
 20
22543.236647
 30
0.0
 11
46079.670326
 21
21305.037834
 31
0.0
  0
LINE
  5
2A5A
100
AcDbEntity
  8
LJ
 62
     5
100
AcDbLine
 10
46243.77199
 20
21278.136276
 30
0.0
 11
47044.402532
 21
22288.53999
 31
0.0
  0
LINE
  5
2A5B
100
AcDbEntity
  8
LJ
 62
     5
100
AcDbLine
 10
46588.17109
 20
22479.160218
 30
0.0
 11
46731.687165
 21
21197.90011
 31
0.0
  0
LINE
  5
2A5C
100
AcDbEntity
  8
LJ
 62
     5
100
AcDbLine
 10
46056.871494
 20
22646.055095
 30
0.0
 11
45704.797871
 21
21418.095086
 31
0.0
  0
LINE
  5
2A5D
100
AcDbEntity
  8
LJ
 62
     5
100
AcDbLine
 10
46688.2168
 20
21256.539494
 30
0.0
 11
46688.782804
 21
21260.135275
 31
0.0
  0
LINE
  5
2A5E
100
AcDbEntity
  8
LJ
 62
     5
100
AcDbLine
 10
46609.247195
 20
21269.512217
 30
0.0
 11
46609.912454
 21
21273.120185
 31
0.0
  0
LINE
  5
2A5F
100
AcDbEntity
  8
LJ
 62
     5
100
AcDbLine
 10
46688.782804
 20
21260.135275
 30
0.0
 11
46609.912454
 21
21273.120185
 31
0.0
  0
LINE
  5
2A60
100
AcDbEntity
  8
LJ
 62
     5
100
AcDbLine
 10
46420.607447
 20
22494.050336
 30
0.0
 11
46381.449459
 21
22357.560805
 31
0.0
  0
ARC
  5
2A61
100
AcDbEntity
  8
LJ
 62
     5
100
AcDbCircle
 10
46425.813701
 20
22640.375504
 30
0.0
 40
39.9999
100
AcDbArc
 50
219.673
 51
274.983
  0
ARC
  5
2A62
100
AcDbEntity
  8
LJ
 62
     5
100
AcDbCircle
 10
46243.703628
 20
22753.223018
 30
0.0
 40
60.0
100
AcDbArc
 50
155.969
 51
247.328
  0
LINE
  5
2A63
100
AcDbEntity
  8
LJ
 62
     5
100
AcDbLine
 10
46220.5744
 20
22697.891844
 30
0.0
 11
46216.671933
 21
22688.647345
 31
0.0
  0
ARC
  5
2A64
100
AcDbEntity
  8
LJ
 62
     5
100
AcDbCircle
 10
46134.126171
 20
22802.133456
 30
0.0
 40
60.0
100
AcDbArc
 50
335.969
 51
112.919
  0
LINE
  5
2A65
100
AcDbEntity
  8
LJ
 62
     5
100
AcDbLine
 10
50450.200299
 20
20785.196635
 30
0.0
 11
50497.782323
 21
20746.406287
 31
0.0
  0
ARC
  5
2A66
100
AcDbEntity
  8
LJ
 62
     5
100
AcDbCircle
 10
50479.774226
 20
21082.617721
 30
0.0
 40
140.0
100
AcDbArc
 50
254.0
 51
323.013
  0
LINE
  5
2A67
100
AcDbEntity
  8
LJ
 62
     5
100
AcDbLine
 10
50416.628843
 20
20668.031976
 30
0.0
 11
50477.435361
 21
20675.80033
 31
0.0
  0
LINE
  5
2A68
100
AcDbEntity
  8
LJ
 62
     5
100
AcDbLine
 10
50242.788509
 20
20557.623198
 30
0.0
 11
50422.402909
 21
20506.128856
 31
0.0
  0
POINT
  5
2A69
100
AcDbEntity
  8
LJ
 62
     5
100
AcDbPoint
 10
50673.904585
 20
20657.709056
 30
0.0
  0
ARC
  5
2A6A
100
AcDbEntity
  8
LJ
 62
     5
100
AcDbCircle
 10
48991.677732
 20
21140.092789
 30
0.0
 40
99.9999
100
AcDbArc
 50
309.735
 51
18.265
  0
LINE
  5
2A6B
100
AcDbEntity
  8
LJ
 62
     5
100
AcDbLine
 10
48531.591525
 20
21667.352499
 30
0.0
 11
48835.58433
 21
20852.32481
 31
0.0
  0
LINE
  5
2A6C
100
AcDbEntity
  8
LJ
 62
     5
100
AcDbLine
 10
48322.077297
 20
20936.672762
 30
0.0
 11
49011.715183
 21
21466.769741
 31
0.0
  0
LINE
  5
2A6D
100
AcDbEntity
  8
LJ
 62
     5
100
AcDbLine
 10
48874.439385
 20
20912.508651
 30
0.0
 11
48870.265159
 21
20898.092485
 31
0.0
  0
LINE
  5
2A6E
100
AcDbEntity
  8
LJ
 62
     5
100
AcDbLine
 10
48874.439385
 20
20912.508651
 30
0.0
 11
49055.536623
 21
21063.101348
 31
0.0
  0
LINE
  5
2A6F
100
AcDbEntity
  8
LJ
 62
     5
100
AcDbLine
 10
50416.628843
 20
20668.031976
 30
0.0
 11
50412.800679
 21
20644.69279
 31
0.0
  0
LINE
  5
2A70
100
AcDbEntity
  8
LJ
 62
     5
100
AcDbLine
 10
50242.788509
 20
20557.623198
 30
0.0
 11
50245.13959
 21
20572.117763
 31
0.0
  0
LINE
  5
2A71
100
AcDbEntity
  8
LJ
 62
     5
100
AcDbLine
 10
49012.761861
 20
21395.062806
 30
0.0
 11
49016.9239
 21
21409.578227
 31
0.0
  0
LINE
  5
2A72
100
AcDbEntity
  8
LJ
 62
     5
100
AcDbLine
 10
49012.761861
 20
21395.062806
 30
0.0
 11
49086.670057
 21
21171.402822
 31
0.0
  0
LINE
  5
2A73
100
AcDbEntity
  8
LJ
 62
     5
100
AcDbLine
 10
50450.200299
 20
20785.196635
 30
0.0
 11
50459.350314
 21
20806.993664
 31
0.0
  0
LINE
  5
2A74
100
AcDbEntity
  8
LJ
 62
     5
100
AcDbLine
 10
50361.300376
 20
20970.947015
 30
0.0
 11
50356.68323
 21
20960.011601
 31
0.0
  0
LINE
  5
2A75
100
AcDbEntity
  8
LJ
 62
     5
100
AcDbLine
 10
50361.300376
 20
20970.947015
 30
0.0
 11
50441.178723
 21
20948.111524
 31
0.0
  0
ARC
  5
2A76
100
AcDbEntity
  8
LJ
 62
     5
100
AcDbCircle
 10
50673.904585
 20
20657.709056
 30
0.0
 40
140.0
100
AcDbArc
 50
272.595
 51
4.987
  0
LINE
  5
2A77
100
AcDbEntity
  8
LJ
 62
     5
100
AcDbLine
 10
50718.824999
 20
20814.552565
 30
0.0
 11
50626.985005
 21
20494.172017
 31
0.0
  0
ARC
  5
2A78
100
AcDbEntity
  8
LJ
 62
     5
100
AcDbCircle
 10
50472.461333
 20
20715.489989
 30
0.0
 40
40.0
100
AcDbArc
 50
277.233
 51
50.7674
  0
CIRCLE
  5
2A79
100
AcDbEntity
  8
LJ
 62
     5
100
AcDbCircle
 10
50673.904585
 20
20657.709056
 30
0.0
 40
72.5
  0
LINE
  5
2A7A
100
AcDbEntity
  8
LJ
 62
     5
100
AcDbLine
 10
50422.402909
 20
20506.128856
 30
0.0
 11
50680.198047
 21
20517.833424
 31
0.0
  0
CIRCLE
  5
2A7B
100
AcDbEntity
  8
LJ
 62
     5
100
AcDbCircle
 10
50703.072336
 20
21013.41509
 30
0.0
 40
40.0
  0
CIRCLE
  5
2A7C
100
AcDbEntity
  8
LJ
 62
     5
100
AcDbCircle
 10
50703.072336
 20
21013.41509
 30
0.0
 40
40.5
  0
LINE
  5
2A7D
100
AcDbEntity
  8
LJ
 62
     5
100
AcDbLine
 10
50639.125742
 20
21061.580981
 30
0.0
 11
50591.569324
 21
20998.414478
 31
0.0
  0
ARC
  5
2A7E
100
AcDbEntity
  8
LJ
 62
     5
100
AcDbCircle
 10
50703.072336
 20
21013.41509
 30
0.0
 40
79.9999
100
AcDbArc
 50
4.987
 51
142.943
  0
LINE
  5
2A7F
100
AcDbEntity
  8
LJ
 62
     5
100
AcDbLine
 10
50782.718008
 20
21020.373321
 30
0.0
 11
50813.358951
 21
20669.895101
 31
0.0
  0
LINE
  5
2A80
100
AcDbEntity
  8
LJ
 62
     5
100
AcDbLine
 10
45346.264822
 20
21404.292726
 30
0.0
 11
38092.58662
 21
23484.207523
 31
0.0
  0
LINE
  5
2A81
100
AcDbEntity
  8
LJ
 62
     5
100
AcDbLine
 10
45374.257192
 20
21501.938858
 30
0.0
 11
38120.608347
 21
23581.845238
 31
0.0
  0
LINE
  5
2A82
100
AcDbEntity
  8
LJ
 62
     5
100
AcDbLine
 10
45732.162848
 20
22750.013148
 30
0.0
 11
38478.46713
 21
24830.00187
 31
0.0
  0
LINE
  5
2A83
100
AcDbEntity
  8
LJ
 62
     5
100
AcDbLine
 10
45760.172147
 20
22847.654426
 30
0.0
 11
38506.488857
 21
24927.639585
 31
0.0
  0
LINE
  5
2A84
100
AcDbEntity
  8
LJ
 62
     5
100
AcDbLine
 10
45766.104868
 20
22064.943232
 30
0.0
 11
38020.609553
 21
24285.859175
 31
0.0
  0
LINE
  5
2A85
100
AcDbEntity
  8
LJ
 62
     5
100
AcDbLine
 10
38398.603583
 20
25012.239387
 30
0.0
 11
37957.427511
 21
23473.6048
 31
0.0
  0
LINE
  5
2A86
100
AcDbEntity
  8
LJ
 62
     5
100
AcDbLine
 10
38552.4468
 20
24808.77154
 30
0.0
 11
38194.586377
 21
23560.656062
 31
0.0
  0
LINE
  5
2A87
100
AcDbEntity
  8
LJ
 62
     5
100
AcDbLine
 10
38497.731882
 20
24824.420111
 30
0.0
 11
38139.859272
 21
23576.403888
 31
0.0
  0
LINE
  5
2A88
100
AcDbEntity
  8
LJ
 62
     5
100
AcDbLine
 10
38405.315085
 20
25035.530925
 30
0.0
 11
37950.228404
 21
23448.540625
 31
0.0
  0
POINT
  5
2A89
100
AcDbEntity
  8
LJ
 62
     5
100
AcDbPoint
 10
38177.442984
 20
24240.889311
 30
0.0
  0
LINE
  5
2A8A
100
AcDbEntity
  8
LJ
 62
     5
100
AcDbLine
 10
38760.423676
 20
23345.510621
 30
0.0
 11
38589.377316
 21
24850.986905
 31
0.0
  0
LINE
  5
2A8B
100
AcDbEntity
  8
LJ
 62
     5
100
AcDbLine
 10
39146.392652
 20
24691.279564
 30
0.0
 11
38203.507594
 21
23505.230149
 31
0.0
  0
LINE
  5
2A8C
100
AcDbEntity
  8
LJ
 62
     5
100
AcDbLine
 10
38093.717066
 20
23604.288414
 30
0.0
 11
38057.871295
 21
23479.388932
 31
0.0
  0
LINE
  5
2A8D
100
AcDbEntity
  8
LJ
 62
     5
100
AcDbLine
 10
38124.520544
 20
23595.476733
 30
0.0
 11
38088.674773
 21
23470.577251
 31
0.0
  0
LINE
  5
2A8E
100
AcDbEntity
  8
LJ
 62
     5
100
AcDbLine
 10
37875.232268
 20
23531.720908
 30
0.0
 11
37911.065852
 21
23656.719645
 31
0.0
  0
LINE
  5
2A8F
100
AcDbEntity
  8
LJ
 62
     5
100
AcDbLine
 10
37844.528044
 20
23540.544776
 30
0.0
 11
37880.361628
 21
23665.543513
 31
0.0
  0
ARC
  5
2A90
100
AcDbEntity
  8
LJ
 62
     5
100
AcDbCircle
 10
37984.524294
 20
23568.010755
 30
0.0
 40
74.9999
100
AcDbArc
 50
244.403
 51
83.5975
  0
ARC
  5
2A91
100
AcDbEntity
  8
LJ
 62
     5
100
AcDbCircle
 10
37984.524294
 20
23568.010755
 30
0.0
 40
75.0
100
AcDbArc
 50
64.4019
 51
263.598
  0
LINE
  5
2A92
100
AcDbEntity
  8
LJ
 62
     5
100
AcDbLine
 10
38099.218631
 20
23482.349976
 30
0.0
 11
38096.4047
 21
23483.112729
 31
0.0
  0
LINE
  5
2A93
100
AcDbEntity
  8
LJ
 62
     5
100
AcDbLine
 10
38057.871295
 20
23479.388932
 30
0.0
 11
38088.674773
 21
23470.577251
 31
0.0
  0
LINE
  5
2A94
100
AcDbEntity
  8
LJ
 62
     5
100
AcDbLine
 10
38059.295788
 20
23484.198383
 30
0.0
 11
37976.138266
 21
23493.533614
 31
0.0
  0
LINE
  5
2A95
100
AcDbEntity
  8
LJ
 62
     5
100
AcDbLine
 10
37875.232268
 20
23531.720908
 30
0.0
 11
37844.528044
 21
23540.544776
 31
0.0
  0
LINE
  5
2A96
100
AcDbEntity
  8
LJ
 62
     5
100
AcDbLine
 10
37876.656761
 20
23536.530359
 30
0.0
 11
37952.127572
 21
23500.358316
 31
0.0
  0
LINE
  5
2A97
100
AcDbEntity
  8
LJ
 62
     5
100
AcDbLine
 10
38092.391827
 20
23599.49115
 30
0.0
 11
38016.921016
 21
23635.663193
 31
0.0
  0
LINE
  5
2A98
100
AcDbEntity
  8
LJ
 62
     5
100
AcDbLine
 10
38093.717066
 20
23604.288414
 30
0.0
 11
38124.520544
 21
23595.476733
 31
0.0
  0
LINE
  5
2A99
100
AcDbEntity
  8
LJ
 62
     5
100
AcDbLine
 10
37911.065852
 20
23656.719645
 30
0.0
 11
37880.361628
 21
23665.543513
 31
0.0
  0
LINE
  5
2A9A
100
AcDbEntity
  8
LJ
 62
     5
100
AcDbLine
 10
37909.740613
 20
23651.922381
 30
0.0
 11
37992.898135
 21
23642.58715
 31
0.0
  0
LINE
  5
2A9B
100
AcDbEntity
  8
LJ
 62
     5
100
AcDbLine
 10
39448.026802
 20
23204.557721
 30
0.0
 11
39447.089914
 21
23201.520907
 31
0.0
  0
LINE
  5
2A9C
100
AcDbEntity
  8
LJ
 62
     5
100
AcDbLine
 10
39448.026802
 20
23204.557721
 30
0.0
 11
39447.506156
 21
23204.695295
 31
0.0
  0
LINE
  5
2A9D
100
AcDbEntity
  8
LJ
 62
     5
100
AcDbLine
 10
39371.061641
 20
23226.642645
 30
0.0
 11
39370.59841
 21
23224.671498
 31
0.0
  0
LINE
  5
2A9E
100
AcDbEntity
  8
LJ
 62
     5
100
AcDbLine
 10
39396.857159
 20
23219.231083
 30
0.0
 11
39371.061641
 21
23226.642645
 31
0.0
  0
LINE
  5
2A9F
100
AcDbEntity
  8
LJ
 62
     5
100
AcDbLine
 10
39447.506156
 20
23204.695295
 30
0.0
 11
39396.857159
 21
23219.231083
 31
0.0
  0
LINE
  5
2AA0
100
AcDbEntity
  8
LJ
 62
     5
100
AcDbLine
 10
38478.261549
 20
24945.247907
 30
0.0
 11
38402.790738
 21
24981.419949
 31
0.0
  0
LINE
  5
2AA1
100
AcDbEntity
  8
LJ
 62
     5
100
AcDbLine
 10
38443.840272
 20
24825.157875
 30
0.0
 11
38474.544495
 21
24816.334007
 31
0.0
  0
LINE
  5
2AA2
100
AcDbEntity
  8
LJ
 62
     5
100
AcDbLine
 10
38479.686043
 20
24950.057358
 30
0.0
 11
38443.840272
 21
24825.157875
 31
0.0
  0
LINE
  5
2AA3
100
AcDbEntity
  8
LJ
 62
     5
100
AcDbLine
 10
38510.390266
 20
24941.233489
 30
0.0
 11
38474.544495
 21
24816.334007
 31
0.0
  0
LINE
  5
2AA4
100
AcDbEntity
  8
LJ
 62
     5
100
AcDbLine
 10
38479.686043
 20
24950.057358
 30
0.0
 11
38510.390266
 21
24941.233489
 31
0.0
  0
LINE
  5
2AA5
100
AcDbEntity
  8
LJ
 62
     5
100
AcDbLine
 10
38445.16551
 20
24829.955139
 30
0.0
 11
38362.007988
 21
24839.29037
 31
0.0
  0
LINE
  5
2AA6
100
AcDbEntity
  8
LJ
 62
     5
100
AcDbLine
 10
38297.034828
 20
25002.488589
 30
0.0
 11
38266.23135
 21
25011.30027
 31
0.0
  0
LINE
  5
2AA7
100
AcDbEntity
  8
LJ
 62
     5
100
AcDbLine
 10
38266.23135
 20
25011.30027
 30
0.0
 11
38230.397766
 21
24886.301533
 31
0.0
  0
LINE
  5
2AA8
100
AcDbEntity
  8
LJ
 62
     5
100
AcDbLine
 10
38261.201244
 20
24877.489852
 30
0.0
 11
38230.397766
 21
24886.301533
 31
0.0
  0
LINE
  5
2AA9
100
AcDbEntity
  8
LJ
 62
     5
100
AcDbLine
 10
38297.034828
 20
25002.488589
 30
0.0
 11
38261.201244
 21
24877.489852
 31
0.0
  0
ARC
  5
2AAA
100
AcDbEntity
  8
LJ
 62
     5
100
AcDbCircle
 10
38370.394016
 20
24913.767511
 30
0.0
 40
74.9999
100
AcDbArc
 50
244.403
 51
83.5975
  0
LINE
  5
2AAB
100
AcDbEntity
  8
LJ
 62
     5
100
AcDbLine
 10
38295.610335
 20
24997.679138
 30
0.0
 11
38378.767857
 21
24988.343907
 31
0.0
  0
LINE
  5
2AAC
100
AcDbEntity
  8
LJ
 62
     5
100
AcDbLine
 10
38262.526483
 20
24882.287116
 30
0.0
 11
38337.997294
 21
24846.115073
 31
0.0
  0
ARC
  5
2AAD
100
AcDbEntity
  8
LJ
 62
     5
100
AcDbCircle
 10
38370.394016
 20
24913.767511
 30
0.0
 40
75.0
100
AcDbArc
 50
64.4019
 51
263.598
  0
LINE
  5
2AAE
100
AcDbEntity
  8
LJ
 62
     5
100
AcDbLine
 10
40856.122064
 20
24148.195096
 30
0.0
 11
40498.26164
 21
22900.079617
 31
0.0
  0
LINE
  5
2AAF
100
AcDbEntity
  8
LJ
 62
     5
100
AcDbLine
 10
40910.948423
 20
24132.459457
 30
0.0
 11
40553.088
 21
22884.343979
 31
0.0
  0
LINE
  5
2AB0
100
AcDbEntity
  8
LJ
 62
     5
100
AcDbLine
 10
40398.619897
 20
24279.41772
 30
0.0
 11
40040.759473
 21
23031.302242
 31
0.0
  0
LINE
  5
2AB1
100
AcDbEntity
  8
LJ
 62
     5
100
AcDbLine
 10
40343.805724
 20
24295.054104
 30
0.0
 11
39985.933114
 21
23047.037881
 31
0.0
  0
LINE
  5
2AB2
100
AcDbEntity
  8
LJ
 62
     5
100
AcDbLine
 10
45658.123059
 20
22771.248251
 30
0.0
 11
45300.262635
 21
21523.132773
 31
0.0
  0
LINE
  5
2AB3
100
AcDbEntity
  8
LJ
 62
     5
100
AcDbLine
 10
45712.949418
 20
22755.512612
 30
0.0
 11
45355.088995
 21
21507.397134
 31
0.0
  0
LINE
  5
2AB4
100
AcDbEntity
  8
LJ
 62
     5
100
AcDbLine
 10
45903.680882
 20
22887.54105
 30
0.0
 11
45447.556299
 21
21296.695526
 31
0.0
  0
LINE
  5
2AB5
100
AcDbEntity
  8
LJ
 62
     5
100
AcDbLine
 10
45894.79432
 20
22856.526876
 30
0.0
 11
45455.655733
 21
21325.094278
 31
0.0
  0
POINT
  5
2AB6
100
AcDbEntity
  8
LJ
 62
     5
100
AcDbPoint
 10
45675.292893
 20
22090.982337
 30
0.0
  0
LINE
  5
2AB7
100
AcDbEntity
  8
LJ
 62
     5
100
AcDbLine
 10
45649.313283
 20
22826.587097
 30
0.0
 11
44706.428225
 21
21640.537681
 31
0.0
  0
LINE
  5
2AB8
100
AcDbEntity
  8
LJ
 62
     5
100
AcDbLine
 10
45263.443561
 20
21480.83034
 30
0.0
 11
45092.297947
 21
22986.294438
 31
0.0
  0
LINE
  5
2AB9
100
AcDbEntity
  8
LJ
 62
     5
100
AcDbLine
 10
45622.323856
 20
21445.503525
 30
0.0
 11
45586.478085
 21
21320.604043
 31
0.0
  0
LINE
  5
2ABA
100
AcDbEntity
  8
LJ
 62
     5
100
AcDbLine
 10
45408.968418
 20
21506.758624
 30
0.0
 11
45373.134834
 21
21381.759887
 31
0.0
  0
LINE
  5
2ABB
100
AcDbEntity
  8
LJ
 62
     5
100
AcDbLine
 10
45378.16494
 20
21515.570306
 30
0.0
 11
45342.331356
 21
21390.571569
 31
0.0
  0
ARC
  5
2ABC
100
AcDbEntity
  8
LJ
 62
     5
100
AcDbCircle
 10
45482.327606
 20
21418.037547
 30
0.0
 40
75.0
100
AcDbArc
 50
244.402
 51
83.598
  0
ARC
  5
2ABD
100
AcDbEntity
  8
LJ
 62
     5
100
AcDbCircle
 10
45482.327606
 20
21418.037547
 30
0.0
 40
74.9999
100
AcDbArc
 50
67.7211
 51
260.279
  0
LINE
  5
2ABE
100
AcDbEntity
  8
LJ
 62
     5
100
AcDbLine
 10
45579.276096
 20
21322.641528
 30
0.0
 11
45586.478085
 21
21320.604043
 31
0.0
  0
LINE
  5
2ABF
100
AcDbEntity
  8
LJ
 62
     5
100
AcDbLine
 10
45555.773862
 20
21329.427911
 30
0.0
 11
45586.478085
 21
21320.604043
 31
0.0
  0
LINE
  5
2AC0
100
AcDbEntity
  8
LJ
 62
     5
100
AcDbLine
 10
45342.425714
 20
21405.393549
 30
0.0
 11
45339.711038
 21
21406.168489
 31
0.0
  0
LINE
  5
2AC1
100
AcDbEntity
  8
LJ
 62
     5
100
AcDbLine
 10
45373.134834
 20
21381.759887
 30
0.0
 11
45342.331356
 21
21390.571569
 31
0.0
  0
LINE
  5
2AC2
100
AcDbEntity
  8
LJ
 62
     5
100
AcDbLine
 10
45374.460073
 20
21386.557152
 30
0.0
 11
45449.930884
 21
21350.385109
 31
0.0
  0
LINE
  5
2AC3
100
AcDbEntity
  8
LJ
 62
     5
100
AcDbLine
 10
45555.773862
 20
21329.427911
 30
0.0
 11
45469.638828
 21
21344.140356
 31
0.0
  0
LINE
  5
2AC4
100
AcDbEntity
  8
LJ
 62
     5
100
AcDbLine
 10
45383.012946
 20
21446.546637
 30
0.0
 11
45604.400971
 21
21383.053784
 31
0.0
  0
LINE
  5
2AC5
100
AcDbEntity
  8
LJ
 62
     5
100
AcDbLine
 10
45591.619633
 20
21454.327394
 30
0.0
 11
45622.323856
 21
21445.503525
 31
0.0
  0
LINE
  5
2AC6
100
AcDbEntity
  8
LJ
 62
     5
100
AcDbLine
 10
45407.543925
 20
21501.949174
 30
0.0
 11
45490.701447
 21
21492.613943
 31
0.0
  0
LINE
  5
2AC7
100
AcDbEntity
  8
LJ
 62
     5
100
AcDbLine
 10
45408.968418
 20
21506.758624
 30
0.0
 11
45378.16494
 21
21515.570306
 31
0.0
  0
LINE
  5
2AC8
100
AcDbEntity
  8
LJ
 62
     5
100
AcDbLine
 10
45591.619633
 20
21454.327394
 30
0.0
 11
45510.783795
 21
21487.42267
 31
0.0
  0
LINE
  5
2AC9
100
AcDbEntity
  8
LJ
 62
     5
100
AcDbLine
 10
45977.489355
 20
22800.08415
 30
0.0
 11
46008.193578
 21
22791.260282
 31
0.0
  0
LINE
  5
2ACA
100
AcDbEntity
  8
LJ
 62
     5
100
AcDbLine
 10
46008.193578
 20
22791.260282
 30
0.0
 11
45972.447062
 21
22666.372986
 31
0.0
  0
LINE
  5
2ACB
100
AcDbEntity
  8
LJ
 62
     5
100
AcDbLine
 10
45941.643584
 20
22675.184668
 30
0.0
 11
45972.447062
 21
22666.372986
 31
0.0
  0
LINE
  5
2ACC
100
AcDbEntity
  8
LJ
 62
     5
100
AcDbLine
 10
45760.42905
 20
22732.326095
 30
0.0
 11
45835.800606
 21
22696.141865
 31
0.0
  0
LINE
  5
2ACD
100
AcDbEntity
  8
LJ
 62
     5
100
AcDbLine
 10
45793.413647
 20
22847.70593
 30
0.0
 11
45876.571169
 21
22838.370699
 31
0.0
  0
LINE
  5
2ACE
100
AcDbEntity
  8
LJ
 62
     5
100
AcDbLine
 10
45759.004556
 20
22727.516644
 30
0.0
 11
45728.201078
 21
22736.328325
 31
0.0
  0
LINE
  5
2ACF
100
AcDbEntity
  8
LJ
 62
     5
100
AcDbLine
 10
45794.838141
 20
22852.515381
 30
0.0
 11
45764.034662
 21
22861.327062
 31
0.0
  0
LINE
  5
2AD0
100
AcDbEntity
  8
LJ
 62
     5
100
AcDbLine
 10
45764.034662
 20
22861.327062
 30
0.0
 11
45728.201078
 21
22736.328325
 31
0.0
  0
LINE
  5
2AD1
100
AcDbEntity
  8
LJ
 62
     5
100
AcDbLine
 10
45794.838141
 20
22852.515381
 30
0.0
 11
45759.004556
 21
22727.516644
 31
0.0
  0
ARC
  5
2AD2
100
AcDbEntity
  8
LJ
 62
     5
100
AcDbCircle
 10
45868.197328
 20
22763.794304
 30
0.0
 40
75.0
100
AcDbArc
 50
244.402
 51
83.598
  0
ARC
  5
2AD3
100
AcDbEntity
  8
LJ
 62
     5
100
AcDbCircle
 10
45868.197328
 20
22763.794304
 30
0.0
 40
74.9999
100
AcDbArc
 50
67.7211
 51
260.279
  0
LINE
  5
2AD4
100
AcDbEntity
  8
LJ
 62
     5
100
AcDbLine
 10
45977.489355
 20
22800.08415
 30
0.0
 11
45896.653517
 21
22833.179427
 31
0.0
  0
LINE
  5
2AD5
100
AcDbEntity
  8
LJ
 62
     5
100
AcDbLine
 10
45941.643584
 20
22675.184668
 30
0.0
 11
45855.607805
 21
22689.909299
 31
0.0
  0
LINE
  5
2AD6
100
AcDbEntity
  8
LJ
 62
     5
100
AcDbLine
 10
21257.519716
 20
29774.443571
 30
0.0
 11
21632.416673
 21
29666.930632
 31
0.0
  0
LINE
  5
2AD7
100
AcDbEntity
  8
LJ
 62
     5
100
AcDbLine
 10
20896.284382
 20
28514.428094
 30
0.0
 11
21271.181338
 21
28406.915155
 31
0.0
  0
POINT
  5
2AD8
100
AcDbEntity
  8
LJ
 62
     5
100
AcDbPoint
 10
20874.617779
 20
29202.394207
 30
0.0
  0
LINE
  5
2AD9
100
AcDbEntity
  8
LJ
 62
     5
100
AcDbLine
 10
21567.288972
 20
28275.622965
 30
0.0
 11
21296.618001
 21
29809.671034
 31
0.0
  0
LINE
  5
2ADA
100
AcDbEntity
  8
LJ
 62
     5
100
AcDbLine
 10
21953.158695
 20
29621.379722
 30
0.0
 11
20910.760466
 21
28463.815022
 31
0.0
  0
LINE
  5
2ADB
100
AcDbEntity
  8
LJ
 62
     5
100
AcDbLine
 10
20743.419139
 20
29240.006861
 30
0.0
 11
21542.597872
 21
29010.89448
 31
0.0
  0
LINE
  5
2ADC
100
AcDbEntity
  8
LJ
 62
     5
100
AcDbLine
 10
21203.669382
 20
29889.095968
 30
0.0
 11
29610.858591
 21
27478.39313
 31
0.0
  0
LINE
  5
2ADD
100
AcDbEntity
  8
LJ
 62
     5
100
AcDbLine
 10
20789.805105
 20
28445.685456
 30
0.0
 11
29196.967143
 21
26034.998663
 31
0.0
  0
LINE
  5
2ADE
100
AcDbEntity
  8
LJ
 62
     5
100
AcDbLine
 10
21094.1914
 20
29968.18296
 30
0.0
 11
20640.954122
 21
28387.464798
 31
0.0
  0
LINE
  5
2ADF
100
AcDbEntity
  8
LJ
 62
     5
100
AcDbLine
 10
21245.163269
 20
29767.586588
 30
0.0
 11
20889.427399
 21
28526.784541
 31
0.0
  0
LINE
  5
2AE0
100
AcDbEntity
  8
LJ
 62
     5
100
AcDbLine
 10
20846.591497
 20
28535.126336
 30
0.0
 11
21204.563362
 21
29783.154747
 31
0.0
  0
ARC
  5
2AE1
100
AcDbEntity
  8
LJ
 62
     5
100
AcDbCircle
 10
20681.749059
 20
28529.495122
 30
0.0
 40
74.9999
100
AcDbArc
 50
244.403
 51
83.5975
  0
ARC
  5
2AE2
100
AcDbEntity
  8
LJ
 62
     5
100
AcDbCircle
 10
20681.749059
 20
28529.495122
 30
0.0
 40
75.0
100
AcDbArc
 50
64.4019
 51
263.598
  0
LINE
  5
2AE3
100
AcDbEntity
  8
LJ
 62
     5
100
AcDbLine
 10
20756.520553
 20
28445.68275
 30
0.0
 11
20673.363031
 21
28455.017981
 31
0.0
  0
LINE
  5
2AE4
100
AcDbEntity
  8
LJ
 62
     5
100
AcDbLine
 10
20573.881526
 20
28498.014727
 30
0.0
 11
20649.352337
 21
28461.842684
 31
0.0
  0
LINE
  5
2AE5
100
AcDbEntity
  8
LJ
 62
     5
100
AcDbLine
 10
20889.427399
 20
28526.784541
 30
0.0
 11
20896.284382
 21
28514.428094
 31
0.0
  0
LINE
  5
2AE6
100
AcDbEntity
  8
LJ
 62
     5
100
AcDbLine
 10
20793.629465
 20
28444.597097
 30
0.0
 11
20795.823495
 21
28443.959731
 31
0.0
  0
LINE
  5
2AE7
100
AcDbEntity
  8
LJ
 62
     5
100
AcDbLine
 10
20817.79953
 20
28543.338756
 30
0.0
 11
20892.021838
 21
28522.065549
 31
0.0
  0
LINE
  5
2AE8
100
AcDbEntity
  8
LJ
 62
     5
100
AcDbLine
 10
20785.899538
 20
28432.061618
 30
0.0
 11
20821.733122
 21
28557.060355
 31
0.0
  0
LINE
  5
2AE9
100
AcDbEntity
  8
LJ
 62
     5
100
AcDbLine
 10
20559.675695
 20
28564.478885
 30
0.0
 11
20784.918944
 21
28499.94813
 31
0.0
  0
LINE
  5
2AEA
100
AcDbEntity
  8
LJ
 62
     5
100
AcDbLine
 10
20789.616592
 20
28560.975518
 30
0.0
 11
20714.145781
 21
28597.14756
 31
0.0
  0
LINE
  5
2AEB
100
AcDbEntity
  8
LJ
 62
     5
100
AcDbLine
 10
20608.389871
 20
28618.2162
 30
0.0
 11
20572.556287
 21
28493.217463
 31
0.0
  0
LINE
  5
2AEC
100
AcDbEntity
  8
LJ
 62
     5
100
AcDbLine
 10
20606.965378
 20
28613.406749
 30
0.0
 11
20690.1229
 21
28604.071518
 31
0.0
  0
LINE
  5
2AED
100
AcDbEntity
  8
LJ
 62
     5
100
AcDbLine
 10
20608.389871
 20
28618.2162
 30
0.0
 11
20577.586393
 21
28627.027881
 31
0.0
  0
LINE
  5
2AEE
100
AcDbEntity
  8
LJ
 62
     5
100
AcDbLine
 10
20572.556287
 20
28493.217463
 30
0.0
 11
20541.752809
 21
28502.029144
 31
0.0
  0
LINE
  5
2AEF
100
AcDbEntity
  8
LJ
 62
     5
100
AcDbLine
 10
20577.586393
 20
28627.027881
 30
0.0
 11
20541.752809
 21
28502.029144
 31
0.0
  0
LINE
  5
2AF0
100
AcDbEntity
  8
LJ
 62
     5
100
AcDbLine
 10
20755.09606
 20
28440.873299
 30
0.0
 11
20790.929644
 21
28565.872036
 31
0.0
  0
LINE
  5
2AF1
100
AcDbEntity
  8
LJ
 62
     5
100
AcDbLine
 10
20790.929644
 20
28565.872036
 30
0.0
 11
20821.733122
 21
28557.060355
 31
0.0
  0
LINE
  5
2AF2
100
AcDbEntity
  8
LJ
 62
     5
100
AcDbLine
 10
20755.09606
 20
28440.873299
 30
0.0
 11
20785.899538
 21
28432.061618
 31
0.0
  0
ARC
  5
2AF3
100
AcDbEntity
  8
LJ
 62
     5
100
AcDbCircle
 10
21272.754078
 20
29917.869246
 30
0.0
 40
37.5
100
AcDbArc
 50
344.0
 51
164.0
  0
LINE
  5
2AF4
100
AcDbEntity
  8
LJ
 62
     5
100
AcDbLine
 10
21257.519716
 20
29774.443571
 30
0.0
 11
21245.163269
 21
29767.586588
 31
0.0
  0
LINE
  5
2AF5
100
AcDbEntity
  8
LJ
 62
     5
100
AcDbLine
 10
21295.952255
 20
29862.685058
 30
0.0
 11
21308.807341
 21
29907.531139
 31
0.0
  0
LINE
  5
2AF6
100
AcDbEntity
  8
LJ
 62
     5
100
AcDbLine
 10
21171.76926
 20
29777.818375
 30
0.0
 11
21207.602844
 21
29902.817112
 31
0.0
  0
LINE
  5
2AF7
100
AcDbEntity
  8
LJ
 62
     5
100
AcDbLine
 10
21175.676883
 20
29791.449382
 30
0.0
 11
21249.882261
 21
29770.181027
 31
0.0
  0
LINE
  5
2AF8
100
AcDbEntity
  8
LJ
 62
     5
100
AcDbLine
 10
21236.719756
 20
29928.255182
 30
0.0
 11
21223.895798
 21
29883.357675
 31
0.0
  0
ARC
  5
2AF9
100
AcDbEntity
  8
LJ
 62
     5
100
AcDbCircle
 10
21067.718036
 20
29875.264066
 30
0.0
 40
74.9999
100
AcDbArc
 50
244.403
 51
83.5975
  0
LINE
  5
2AFA
100
AcDbEntity
  8
LJ
 62
     5
100
AcDbLine
 10
20963.55537
 20
29972.796824
 30
0.0
 11
20927.721786
 21
29847.798087
 31
0.0
  0
LINE
  5
2AFB
100
AcDbEntity
  8
LJ
 62
     5
100
AcDbLine
 10
20992.934355
 20
29959.175692
 30
0.0
 11
21075.992622
 21
29949.828274
 31
0.0
  0
LINE
  5
2AFC
100
AcDbEntity
  8
LJ
 62
     5
100
AcDbLine
 10
20994.259594
 20
29963.972956
 30
0.0
 11
20963.55537
 21
29972.796824
 31
0.0
  0
LINE
  5
2AFD
100
AcDbEntity
  8
LJ
 62
     5
100
AcDbLine
 10
20958.426009
 20
29838.974219
 30
0.0
 11
20927.721786
 21
29847.798087
 31
0.0
  0
LINE
  5
2AFE
100
AcDbEntity
  8
LJ
 62
     5
100
AcDbLine
 10
20959.850503
 20
29843.78367
 30
0.0
 11
21035.321314
 21
29807.611627
 31
0.0
  0
LINE
  5
2AFF
100
AcDbEntity
  8
LJ
 62
     5
100
AcDbLine
 10
20994.259594
 20
29963.972956
 30
0.0
 11
20958.426009
 21
29838.974219
 31
0.0
  0
ARC
  5
2B00
100
AcDbEntity
  8
LJ
 62
     5
100
AcDbCircle
 10
21067.606594
 20
29875.351133
 30
0.0
 40
75.0
100
AcDbArc
 50
64.4019
 51
263.598
  0
LINE
  5
2B01
100
AcDbEntity
  8
LJ
 62
     5
100
AcDbLine
 10
21142.390275
 20
29791.439507
 30
0.0
 11
21059.232753
 21
29800.774738
 31
0.0
  0
LINE
  5
2B02
100
AcDbEntity
  8
LJ
 62
     5
100
AcDbLine
 10
21140.965782
 20
29786.630056
 30
0.0
 11
21176.799366
 21
29911.628793
 31
0.0
  0
LINE
  5
2B03
100
AcDbEntity
  8
LJ
 62
     5
100
AcDbLine
 10
21175.486314
 20
29906.732274
 30
0.0
 11
21100.015503
 21
29942.904317
 31
0.0
  0
LINE
  5
2B04
100
AcDbEntity
  8
LJ
 62
     5
100
AcDbLine
 10
21176.799366
 20
29911.628793
 30
0.0
 11
21207.602844
 21
29902.817112
 31
0.0
  0
LINE
  5
2B05
100
AcDbEntity
  8
LJ
 62
     5
100
AcDbLine
 10
21140.965782
 20
29786.630056
 30
0.0
 11
21171.76926
 21
29777.818375
 31
0.0
  0
LINE
  5
2B06
100
AcDbEntity
  8
LJ
 62
     5
100
AcDbLine
 10
21638.565768
 20
28983.384972
 30
0.0
 11
29656.110292
 21
26684.341135
 31
0.0
  0
LINE
  5
2B07
100
AcDbEntity
  8
LJ
 62
     5
100
AcDbLine
 10
21272.868794
 20
28412.865154
 30
0.0
 11
29224.988867
 21
26132.636368
 31
0.0
  0
LINE
  5
2B08
100
AcDbEntity
  8
LJ
 62
     5
100
AcDbLine
 10
21630.729217
 20
29660.980632
 30
0.0
 11
29582.836863
 21
27380.75541
 31
0.0
  0
LINE
  5
2B09
100
AcDbEntity
  8
LJ
 62
     5
100
AcDbLine
 10
21632.416673
 20
29666.930632
 30
0.0
 11
21271.181338
 21
28406.915155
 31
0.0
  0
LINE
  5
2B0A
100
AcDbEntity
  8
LJ
 62
     5
100
AcDbLine
 10
29196.106617
 20
26140.930287
 30
0.0
 11
29554.066295
 21
27389.057953
 31
0.0
  0
LINE
  5
2B0B
100
AcDbEntity
  8
LJ
 62
     5
100
AcDbLine
 10
29141.3917
 20
26156.578858
 30
0.0
 11
29499.252123
 21
27404.694337
 31
0.0
  0
LINE
  5
2B0C
100
AcDbEntity
  8
LJ
 62
     5
100
AcDbLine
 10
29745.60498
 20
27487.433926
 30
0.0
 11
29292.367703
 21
25906.715763
 31
0.0
  0
POINT
  5
2B0D
100
AcDbEntity
  8
LJ
 62
     5
100
AcDbPoint
 10
29526.030382
 20
26721.641759
 30
0.0
  0
LINE
  5
2B0E
100
AcDbEntity
  8
LJ
 62
     5
100
AcDbLine
 10
28830.554889
 20
27649.324077
 30
0.0
 11
29101.126606
 21
26115.263822
 31
0.0
  0
LINE
  5
2B0F
100
AcDbEntity
  8
LJ
 62
     5
100
AcDbLine
 10
28444.585913
 20
26303.555133
 30
0.0
 11
29487.095583
 21
27461.032765
 31
0.0
  0
ARC
  5
2B10
100
AcDbEntity
  8
LJ
100
AcDbCircle
 10
29333.051198
 20
26048.833155
 30
0.0
 40
74.9999
100
AcDbArc
 50
244.403
 51
83.5975
  0
LINE
  5
2B11
100
AcDbEntity
  8
LJ
100
AcDbLine
 10
29225.183665
 20
26017.35276
 30
0.0
 11
29300.654476
 21
25981.180717
 31
0.0
  0
ARC
  5
2B12
100
AcDbEntity
  8
LJ
100
AcDbCircle
 10
29333.051198
 20
26048.833155
 30
0.0
 40
75.0
100
AcDbArc
 50
64.4019
 51
263.598
  0
LINE
  5
2B13
100
AcDbEntity
  8
LJ
100
AcDbLine
 10
29407.934134
 20
25964.933716
 30
0.0
 11
29324.776612
 21
25974.268947
 31
0.0
  0
LINE
  5
2B14
100
AcDbEntity
  8
LJ
100
AcDbLine
 10
29258.279704
 20
26132.645527
 30
0.0
 11
29341.437226
 21
26123.310296
 31
0.0
  0
LINE
  5
2B15
100
AcDbEntity
  8
LJ
100
AcDbLine
 10
29223.858427
 20
26012.555496
 30
0.0
 11
29259.604943
 21
26137.442791
 31
0.0
  0
LINE
  5
2B16
100
AcDbEntity
  8
LJ
100
AcDbLine
 10
29406.509641
 20
25960.124265
 30
0.0
 11
29442.343225
 21
26085.123002
 31
0.0
  0
LINE
  5
2B17
100
AcDbEntity
  8
LJ
100
AcDbLine
 10
29437.213864
 20
25951.300397
 30
0.0
 11
29473.047449
 21
26076.299134
 31
0.0
  0
LINE
  5
2B18
100
AcDbEntity
  8
LJ
100
AcDbLine
 10
29442.343225
 20
26085.123002
 30
0.0
 11
29473.047449
 21
26076.299134
 31
0.0
  0
LINE
  5
2B19
100
AcDbEntity
  8
LJ
100
AcDbLine
 10
29406.509641
 20
25960.124265
 30
0.0
 11
29437.213864
 21
25951.300397
 31
0.0
  0
LINE
  5
2B1A
100
AcDbEntity
  8
LJ
100
AcDbLine
 10
29441.017986
 20
26080.325738
 30
0.0
 11
29365.559362
 21
26116.398526
 31
0.0
  0
LINE
  5
2B1B
100
AcDbEntity
  8
LJ
100
AcDbLine
 10
29193.054948
 20
26021.367177
 30
0.0
 11
29228.900719
 21
26146.266659
 31
0.0
  0
LINE
  5
2B1C
100
AcDbEntity
  8
LJ
100
AcDbLine
 10
29193.161494
 20
26036.089903
 30
0.0
 11
29190.967464
 21
26036.727269
 31
0.0
  0
LINE
  5
2B1D
100
AcDbEntity
  8
LJ
100
AcDbLine
 10
29223.858427
 20
26012.555496
 30
0.0
 11
29193.054948
 21
26021.367177
 31
0.0
  0
LINE
  5
2B1E
100
AcDbEntity
  8
LJ
100
AcDbLine
 10
29259.604943
 20
26137.442791
 30
0.0
 11
29228.900719
 21
26146.266659
 31
0.0
  0
LINE
  5
2B1F
100
AcDbEntity
  8
LJ
 62
     5
100
AcDbLine
 10
29792.379363
 20
27305.881021
 30
0.0
 11
29828.212947
 21
27430.879758
 31
0.0
  0
LINE
  5
2B20
100
AcDbEntity
  8
LJ
 62
     5
100
AcDbLine
 10
29792.379363
 20
27305.881021
 30
0.0
 11
29823.182841
 21
27297.06934
 31
0.0
  0
LINE
  5
2B21
100
AcDbEntity
  8
LJ
 62
     5
100
AcDbLine
 10
29826.887708
 20
27426.082494
 30
0.0
 11
29751.429084
 21
27462.155282
 31
0.0
  0
ARC
  5
2B22
100
AcDbEntity
  8
LJ
 62
     5
100
AcDbCircle
 10
29718.920921
 20
27394.589912
 30
0.0
 40
74.9999
100
AcDbArc
 50
244.403
 51
83.5975
  0
LINE
  5
2B23
100
AcDbEntity
  8
LJ
 62
     5
100
AcDbLine
 10
29644.149426
 20
27478.402284
 30
0.0
 11
29727.306948
 21
27469.067053
 31
0.0
  0
LINE
  5
2B24
100
AcDbEntity
  8
LJ
 62
     5
100
AcDbLine
 10
29611.053387
 20
27363.109516
 30
0.0
 11
29686.524199
 21
27326.937474
 31
0.0
  0
LINE
  5
2B25
100
AcDbEntity
  8
LJ
 62
     5
100
AcDbLine
 10
29645.57392
 20
27483.211735
 30
0.0
 11
29609.728149
 21
27358.312252
 31
0.0
  0
ARC
  5
2B26
100
AcDbEntity
  8
LJ
 62
     5
100
AcDbCircle
 10
29719.020175
 20
27394.602099
 30
0.0
 40
75.0
100
AcDbArc
 50
64.4019
 51
263.598
  0
LINE
  5
2B27
100
AcDbEntity
  8
LJ
 62
     5
100
AcDbLine
 10
29793.803856
 20
27310.690472
 30
0.0
 11
29710.646334
 21
27320.025703
 31
0.0
  0
LINE
  5
2B28
100
AcDbEntity
  8
LJ
 62
     5
100
AcDbLine
 10
29823.182841
 20
27297.06934
 30
0.0
 11
29859.016425
 21
27422.068077
 31
0.0
  0
LINE
  5
2B29
100
AcDbEntity
  8
LJ
 62
     5
100
AcDbLine
 10
29828.212947
 20
27430.879758
 30
0.0
 11
29859.016425
 21
27422.068077
 31
0.0
  0
LINE
  5
2B2A
100
AcDbEntity
  8
LJ
 62
     5
100
AcDbLine
 10
29614.770442
 20
27492.023416
 30
0.0
 11
29578.924671
 21
27367.123934
 31
0.0
  0
LINE
  5
2B2B
100
AcDbEntity
  8
LJ
 62
     5
100
AcDbLine
 10
29645.57392
 20
27483.211735
 30
0.0
 11
29614.770442
 21
27492.023416
 31
0.0
  0
LINE
  5
2B2C
100
AcDbEntity
  8
LJ
 62
     5
100
AcDbLine
 10
29609.728149
 20
27358.312252
 30
0.0
 11
29578.924671
 21
27367.123934
 31
0.0
  0
LINE
  5
2B2D
100
AcDbEntity
  8
LJ
 62
     5
100
AcDbLine
 10
12606.107114
 20
32255.196019
 30
0.0
 11
12981.004071
 21
32147.68308
 31
0.0
  0
LINE
  5
2B2E
100
AcDbEntity
  8
LJ
 62
     5
100
AcDbLine
 10
12244.87178
 20
30995.180542
 30
0.0
 11
12619.768736
 21
30887.667603
 31
0.0
  0
POINT
  5
2B2F
100
AcDbEntity
  8
LJ
 62
     5
100
AcDbPoint
 10
12223.205177
 20
31683.146656
 30
0.0
  0
LINE
  5
2B30
100
AcDbEntity
  8
LJ
 62
     5
100
AcDbLine
 10
12915.87637
 20
30756.375414
 30
0.0
 11
12645.205399
 21
32290.423482
 31
0.0
  0
LINE
  5
2B31
100
AcDbEntity
  8
LJ
 62
     5
100
AcDbLine
 10
13301.746092
 20
32102.13217
 30
0.0
 11
12259.347864
 21
30944.567471
 31
0.0
  0
LINE
  5
2B32
100
AcDbEntity
  8
LJ
 62
     5
100
AcDbLine
 10
12092.006537
 20
31720.759309
 30
0.0
 11
12891.18527
 21
31491.646928
 31
0.0
  0
LINE
  5
2B33
100
AcDbEntity
  8
LJ
 62
     5
100
AcDbLine
 10
12552.25678
 20
32369.848416
 30
0.0
 11
20959.445989
 21
29959.145578
 31
0.0
  0
LINE
  5
2B34
100
AcDbEntity
  8
LJ
 62
     5
100
AcDbLine
 10
12138.392503
 20
30926.437904
 30
0.0
 11
20545.554541
 21
28515.751111
 31
0.0
  0
LINE
  5
2B35
100
AcDbEntity
  8
LJ
 62
     5
100
AcDbLine
 10
12442.778797
 20
32448.935409
 30
0.0
 11
11989.54152
 21
30868.217246
 31
0.0
  0
LINE
  5
2B36
100
AcDbEntity
  8
LJ
 62
     5
100
AcDbLine
 10
12593.750667
 20
32248.339036
 30
0.0
 11
12238.014797
 21
31007.536989
 31
0.0
  0
LINE
  5
2B37
100
AcDbEntity
  8
LJ
 62
     5
100
AcDbLine
 10
12195.178895
 20
31015.878784
 30
0.0
 11
12553.15076
 21
32263.907195
 31
0.0
  0
ARC
  5
2B38
100
AcDbEntity
  8
LJ
 62
     5
100
AcDbCircle
 10
12030.336457
 20
31010.24757
 30
0.0
 40
74.9999
100
AcDbArc
 50
244.403
 51
83.5975
  0
ARC
  5
2B39
100
AcDbEntity
  8
LJ
 62
     5
100
AcDbCircle
 10
12030.336457
 20
31010.24757
 30
0.0
 40
75.0
100
AcDbArc
 50
64.4019
 51
263.598
  0
LINE
  5
2B3A
100
AcDbEntity
  8
LJ
 62
     5
100
AcDbLine
 10
12105.107951
 20
30926.435199
 30
0.0
 11
12021.950429
 21
30935.770429
 31
0.0
  0
LINE
  5
2B3B
100
AcDbEntity
  8
LJ
 62
     5
100
AcDbLine
 10
11922.468924
 20
30978.767175
 30
0.0
 11
11997.939735
 21
30942.595132
 31
0.0
  0
LINE
  5
2B3C
100
AcDbEntity
  8
LJ
 62
     5
100
AcDbLine
 10
12238.014797
 20
31007.536989
 30
0.0
 11
12244.87178
 21
30995.180542
 31
0.0
  0
LINE
  5
2B3D
100
AcDbEntity
  8
LJ
 62
     5
100
AcDbLine
 10
12142.216863
 20
30925.349545
 30
0.0
 11
12144.410893
 21
30924.712179
 31
0.0
  0
LINE
  5
2B3E
100
AcDbEntity
  8
LJ
 62
     5
100
AcDbLine
 10
12166.386928
 20
31024.091204
 30
0.0
 11
12240.609236
 21
31002.817997
 31
0.0
  0
LINE
  5
2B3F
100
AcDbEntity
  8
LJ
 62
     5
100
AcDbLine
 10
12134.486936
 20
30912.814066
 30
0.0
 11
12170.32052
 21
31037.812803
 31
0.0
  0
LINE
  5
2B40
100
AcDbEntity
  8
LJ
 62
     5
100
AcDbLine
 10
11908.263092
 20
31045.231333
 30
0.0
 11
12133.506342
 21
30980.700578
 31
0.0
  0
LINE
  5
2B41
100
AcDbEntity
  8
LJ
 62
     5
100
AcDbLine
 10
12138.20399
 20
31041.727966
 30
0.0
 11
12062.733179
 21
31077.900009
 31
0.0
  0
LINE
  5
2B42
100
AcDbEntity
  8
LJ
 62
     5
100
AcDbLine
 10
11956.977269
 20
31098.968648
 30
0.0
 11
11921.143685
 21
30973.969911
 31
0.0
  0
LINE
  5
2B43
100
AcDbEntity
  8
LJ
 62
     5
100
AcDbLine
 10
11955.552776
 20
31094.159197
 30
0.0
 11
12038.710298
 21
31084.823966
 31
0.0
  0
LINE
  5
2B44
100
AcDbEntity
  8
LJ
 62
     5
100
AcDbLine
 10
11956.977269
 20
31098.968648
 30
0.0
 11
11926.173791
 21
31107.780329
 31
0.0
  0
LINE
  5
2B45
100
AcDbEntity
  8
LJ
 62
     5
100
AcDbLine
 10
11921.143685
 20
30973.969911
 30
0.0
 11
11890.340207
 21
30982.781592
 31
0.0
  0
LINE
  5
2B46
100
AcDbEntity
  8
LJ
 62
     5
100
AcDbLine
 10
11926.173791
 20
31107.780329
 30
0.0
 11
11890.340207
 21
30982.781592
 31
0.0
  0
LINE
  5
2B47
100
AcDbEntity
  8
LJ
 62
     5
100
AcDbLine
 10
12103.683458
 20
30921.625748
 30
0.0
 11
12139.517042
 21
31046.624485
 31
0.0
  0
LINE
  5
2B48
100
AcDbEntity
  8
LJ
 62
     5
100
AcDbLine
 10
12139.517042
 20
31046.624485
 30
0.0
 11
12170.32052
 21
31037.812803
 31
0.0
  0
LINE
  5
2B49
100
AcDbEntity
  8
LJ
 62
     5
100
AcDbLine
 10
12103.683458
 20
30921.625748
 30
0.0
 11
12134.486936
 21
30912.814066
 31
0.0
  0
ARC
  5
2B4A
100
AcDbEntity
  8
LJ
 62
     5
100
AcDbCircle
 10
12621.341476
 20
32398.621694
 30
0.0
 40
37.5
100
AcDbArc
 50
344.0
 51
164.0
  0
LINE
  5
2B4B
100
AcDbEntity
  8
LJ
 62
     5
100
AcDbLine
 10
12606.107114
 20
32255.196019
 30
0.0
 11
12593.750667
 21
32248.339036
 31
0.0
  0
LINE
  5
2B4C
100
AcDbEntity
  8
LJ
 62
     5
100
AcDbLine
 10
12644.539652
 20
32343.437506
 30
0.0
 11
12657.394738
 21
32388.283587
 31
0.0
  0
LINE
  5
2B4D
100
AcDbEntity
  8
LJ
 62
     5
100
AcDbLine
 10
12520.356658
 20
32258.570823
 30
0.0
 11
12556.190242
 21
32383.56956
 31
0.0
  0
LINE
  5
2B4E
100
AcDbEntity
  8
LJ
 62
     5
100
AcDbLine
 10
12524.26428
 20
32272.20183
 30
0.0
 11
12598.469659
 21
32250.933475
 31
0.0
  0
LINE
  5
2B4F
100
AcDbEntity
  8
LJ
 62
     5
100
AcDbLine
 10
12585.307154
 20
32409.00763
 30
0.0
 11
12572.483196
 21
32364.110124
 31
0.0
  0
ARC
  5
2B50
100
AcDbEntity
  8
LJ
 62
     5
100
AcDbCircle
 10
12416.305434
 20
32356.016514
 30
0.0
 40
74.9999
100
AcDbArc
 50
244.403
 51
83.5975
  0
LINE
  5
2B51
100
AcDbEntity
  8
LJ
 62
     5
100
AcDbLine
 10
12312.142768
 20
32453.549272
 30
0.0
 11
12276.309184
 21
32328.550535
 31
0.0
  0
LINE
  5
2B52
100
AcDbEntity
  8
LJ
 62
     5
100
AcDbLine
 10
12341.521753
 20
32439.92814
 30
0.0
 11
12424.58002
 21
32430.580722
 31
0.0
  0
LINE
  5
2B53
100
AcDbEntity
  8
LJ
 62
     5
100
AcDbLine
 10
12342.846991
 20
32444.725404
 30
0.0
 11
12312.142768
 21
32453.549272
 31
0.0
  0
LINE
  5
2B54
100
AcDbEntity
  8
LJ
 62
     5
100
AcDbLine
 10
12307.013407
 20
32319.726667
 30
0.0
 11
12276.309184
 21
32328.550535
 31
0.0
  0
LINE
  5
2B55
100
AcDbEntity
  8
LJ
 62
     5
100
AcDbLine
 10
12308.437901
 20
32324.536118
 30
0.0
 11
12383.908712
 21
32288.364075
 31
0.0
  0
LINE
  5
2B56
100
AcDbEntity
  8
LJ
 62
     5
100
AcDbLine
 10
12342.846991
 20
32444.725404
 30
0.0
 11
12307.013407
 21
32319.726667
 31
0.0
  0
ARC
  5
2B57
100
AcDbEntity
  8
LJ
 62
     5
100
AcDbCircle
 10
12416.193992
 20
32356.103581
 30
0.0
 40
75.0
100
AcDbArc
 50
64.4019
 51
263.598
  0
LINE
  5
2B58
100
AcDbEntity
  8
LJ
 62
     5
100
AcDbLine
 10
12490.977673
 20
32272.191955
 30
0.0
 11
12407.820151
 21
32281.527186
 31
0.0
  0
LINE
  5
2B59
100
AcDbEntity
  8
LJ
 62
     5
100
AcDbLine
 10
12489.55318
 20
32267.382504
 30
0.0
 11
12525.386764
 21
32392.381241
 31
0.0
  0
LINE
  5
2B5A
100
AcDbEntity
  8
LJ
 62
     5
100
AcDbLine
 10
12524.073712
 20
32387.484722
 30
0.0
 11
12448.602901
 21
32423.656765
 31
0.0
  0
LINE
  5
2B5B
100
AcDbEntity
  8
LJ
 62
     5
100
AcDbLine
 10
12525.386764
 20
32392.381241
 30
0.0
 11
12556.190242
 21
32383.56956
 31
0.0
  0
LINE
  5
2B5C
100
AcDbEntity
  8
LJ
 62
     5
100
AcDbLine
 10
12489.55318
 20
32267.382504
 30
0.0
 11
12520.356658
 21
32258.570823
 31
0.0
  0
LINE
  5
2B5D
100
AcDbEntity
  8
LJ
 62
     5
100
AcDbLine
 10
12987.153166
 20
31464.13742
 30
0.0
 11
21004.69769
 21
29165.093583
 31
0.0
  0
LINE
  5
2B5E
100
AcDbEntity
  8
LJ
 62
     5
100
AcDbLine
 10
12621.456192
 20
30893.617602
 30
0.0
 11
20573.576265
 21
28613.388816
 31
0.0
  0
LINE
  5
2B5F
100
AcDbEntity
  8
LJ
 62
     5
100
AcDbLine
 10
12979.316615
 20
32141.733081
 30
0.0
 11
20931.424261
 21
29861.507858
 31
0.0
  0
LINE
  5
2B60
100
AcDbEntity
  8
LJ
 62
     5
100
AcDbLine
 10
12981.004071
 20
32147.68308
 30
0.0
 11
12619.768736
 21
30887.667603
 31
0.0
  0
LINE
  5
2B61
100
AcDbEntity
  8
LJ
 62
     5
100
AcDbLine
 10
20544.694015
 20
28621.682735
 30
0.0
 11
20902.653693
 21
29869.810401
 31
0.0
  0
LINE
  5
2B62
100
AcDbEntity
  8
LJ
 62
     5
100
AcDbLine
 10
20489.979097
 20
28637.331306
 30
0.0
 11
20847.839521
 21
29885.446785
 31
0.0
  0
LINE
  5
2B63
100
AcDbEntity
  8
LJ
 62
     5
100
AcDbLine
 10
21094.192378
 20
29968.186374
 30
0.0
 11
20640.955101
 21
28387.468211
 31
0.0
  0
POINT
  5
2B64
100
AcDbEntity
  8
LJ
 62
     5
100
AcDbPoint
 10
20874.617779
 20
29202.394207
 30
0.0
  0
LINE
  5
2B65
100
AcDbEntity
  8
LJ
 62
     5
100
AcDbLine
 10
20179.142287
 20
30130.076525
 30
0.0
 11
20449.714004
 21
28596.01627
 31
0.0
  0
LINE
  5
2B66
100
AcDbEntity
  8
LJ
 62
     5
100
AcDbLine
 10
19793.173311
 20
28784.307582
 30
0.0
 11
20835.682981
 21
29941.785213
 31
0.0
  0
ARC
  5
2B67
100
AcDbEntity
  8
LJ
 62
     5
100
AcDbCircle
 10
20681.638596
 20
28529.585604
 30
0.0
 40
74.9999
100
AcDbArc
 50
244.403
 51
83.5975
  0
LINE
  5
2B68
100
AcDbEntity
  8
LJ
 62
     5
100
AcDbLine
 10
20573.771063
 20
28498.105208
 30
0.0
 11
20649.241874
 21
28461.933165
 31
0.0
  0
ARC
  5
2B69
100
AcDbEntity
  8
LJ
 62
     5
100
AcDbCircle
 10
20681.638596
 20
28529.585604
 30
0.0
 40
75.0
100
AcDbArc
 50
64.4019
 51
263.598
  0
LINE
  5
2B6A
100
AcDbEntity
  8
LJ
 62
     5
100
AcDbLine
 10
20756.521532
 20
28445.686164
 30
0.0
 11
20673.36401
 21
28455.021395
 31
0.0
  0
LINE
  5
2B6B
100
AcDbEntity
  8
LJ
 62
     5
100
AcDbLine
 10
20606.867102
 20
28613.397975
 30
0.0
 11
20690.024624
 21
28604.062745
 31
0.0
  0
LINE
  5
2B6C
100
AcDbEntity
  8
LJ
 62
     5
100
AcDbLine
 10
20572.445825
 20
28493.307944
 30
0.0
 11
20608.192341
 21
28618.195239
 31
0.0
  0
LINE
  5
2B6D
100
AcDbEntity
  8
LJ
 62
     5
100
AcDbLine
 10
20755.097039
 20
28440.876713
 30
0.0
 11
20790.930623
 21
28565.87545
 31
0.0
  0
LINE
  5
2B6E
100
AcDbEntity
  8
LJ
 62
     5
100
AcDbLine
 10
20785.801262
 20
28432.052845
 30
0.0
 11
20821.634846
 21
28557.051582
 31
0.0
  0
LINE
  5
2B6F
100
AcDbEntity
  8
LJ
 62
     5
100
AcDbLine
 10
20790.930623
 20
28565.87545
 30
0.0
 11
20821.634846
 21
28557.051582
 31
0.0
  0
LINE
  5
2B70
100
AcDbEntity
  8
LJ
 62
     5
100
AcDbLine
 10
20755.097039
 20
28440.876713
 30
0.0
 11
20785.801262
 21
28432.052845
 31
0.0
  0
LINE
  5
2B71
100
AcDbEntity
  8
LJ
 62
     5
100
AcDbLine
 10
20789.605384
 20
28561.078186
 30
0.0
 11
20714.14676
 21
28597.150974
 31
0.0
  0
LINE
  5
2B72
100
AcDbEntity
  8
LJ
 62
     5
100
AcDbLine
 10
20541.642346
 20
28502.119625
 30
0.0
 11
20577.488117
 21
28627.019108
 31
0.0
  0
LINE
  5
2B73
100
AcDbEntity
  8
LJ
 62
     5
100
AcDbLine
 10
20541.748892
 20
28516.842351
 30
0.0
 11
20539.554862
 21
28517.479717
 31
0.0
  0
LINE
  5
2B74
100
AcDbEntity
  8
LJ
 62
     5
100
AcDbLine
 10
20572.445825
 20
28493.307944
 30
0.0
 11
20541.642346
 21
28502.119625
 31
0.0
  0
LINE
  5
2B75
100
AcDbEntity
  8
LJ
 62
     5
100
AcDbLine
 10
20608.192341
 20
28618.195239
 30
0.0
 11
20577.488117
 21
28627.019108
 31
0.0
  0
LINE
  5
2B76
100
AcDbEntity
  8
LJ
 62
     5
100
AcDbLine
 10
21140.966761
 20
29786.63347
 30
0.0
 11
21176.800345
 21
29911.632206
 31
0.0
  0
LINE
  5
2B77
100
AcDbEntity
  8
LJ
 62
     5
100
AcDbLine
 10
21140.966761
 20
29786.63347
 30
0.0
 11
21171.770239
 21
29777.821788
 31
0.0
  0
LINE
  5
2B78
100
AcDbEntity
  8
LJ
 62
     5
100
AcDbLine
 10
21175.475106
 20
29906.834942
 30
0.0
 11
21100.016482
 21
29942.907731
 31
0.0
  0
ARC
  5
2B79
100
AcDbEntity
  8
LJ
 62
     5
100
AcDbCircle
 10
21067.508318
 20
29875.34236
 30
0.0
 40
74.9999
100
AcDbArc
 50
244.403
 51
83.5975
  0
LINE
  5
2B7A
100
AcDbEntity
  8
LJ
 62
     5
100
AcDbLine
 10
20992.736824
 20
29959.154732
 30
0.0
 11
21075.894346
 21
29949.819501
 31
0.0
  0
LINE
  5
2B7B
100
AcDbEntity
  8
LJ
 62
     5
100
AcDbLine
 10
20959.640785
 20
29843.861964
 30
0.0
 11
21035.111596
 21
29807.689922
 31
0.0
  0
LINE
  5
2B7C
100
AcDbEntity
  8
LJ
 62
     5
100
AcDbLine
 10
20994.161318
 20
29963.964183
 30
0.0
 11
20958.315547
 21
29839.0647
 31
0.0
  0
ARC
  5
2B7D
100
AcDbEntity
  8
LJ
 62
     5
100
AcDbCircle
 10
21067.607573
 20
29875.354547
 30
0.0
 40
75.0
100
AcDbArc
 50
64.4019
 51
263.598
  0
LINE
  5
2B7E
100
AcDbEntity
  8
LJ
 62
     5
100
AcDbLine
 10
21142.391254
 20
29791.44292
 30
0.0
 11
21059.233732
 21
29800.778151
 31
0.0
  0
LINE
  5
2B7F
100
AcDbEntity
  8
LJ
 62
     5
100
AcDbLine
 10
21171.770239
 20
29777.821788
 30
0.0
 11
21207.603823
 21
29902.820525
 31
0.0
  0
LINE
  5
2B80
100
AcDbEntity
  8
LJ
 62
     5
100
AcDbLine
 10
21176.800345
 20
29911.632206
 30
0.0
 11
21207.603823
 21
29902.820525
 31
0.0
  0
LINE
  5
2B81
100
AcDbEntity
  8
LJ
 62
     5
100
AcDbLine
 10
20963.357839
 20
29972.775864
 30
0.0
 11
20927.512068
 21
29847.876382
 31
0.0
  0
LINE
  5
2B82
100
AcDbEntity
  8
LJ
 62
     5
100
AcDbLine
 10
20994.161318
 20
29963.964183
 30
0.0
 11
20963.357839
 21
29972.775864
 31
0.0
  0
LINE
  5
2B83
100
AcDbEntity
  8
LJ
 62
     5
100
AcDbLine
 10
20958.315547
 20
29839.0647
 30
0.0
 11
20927.512068
 21
29847.876382
 31
0.0
  0
LINE
  5
2B84
100
AcDbEntity
  8
LJ
 62
     5
100
AcDbLine
 10
22407.296701
 20
5494.268069
 30
0.0
 11
15153.047845
 21
7572.191686
 31
0.0
  0
LINE
  5
2B85
100
AcDbEntity
  8
LJ
 62
     5
100
AcDbLine
 10
22435.262266
 20
5591.921882
 30
0.0
 11
15181.042769
 21
7669.837089
 31
0.0
  0
LINE
  5
2B86
100
AcDbEntity
  8
LJ
 62
     5
100
AcDbLine
 10
22792.825319
 20
6840.094368
 30
0.0
 11
15538.558926
 21
8918.091905
 31
0.0
  0
LINE
  5
2B87
100
AcDbEntity
  8
LJ
 62
     5
100
AcDbLine
 10
22820.807814
 20
6937.743331
 30
0.0
 11
15566.553851
 21
9015.737308
 31
0.0
  0
LINE
  5
2B88
100
AcDbEntity
  8
LJ
 62
     5
100
AcDbLine
 10
22826.955385
 20
6155.033795
 30
0.0
 11
15080.850731
 21
8373.82355
 31
0.0
  0
LINE
  5
2B89
100
AcDbEntity
  8
LJ
 62
     5
100
AcDbLine
 10
15458.645359
 20
9100.307493
 30
0.0
 11
15017.891651
 21
7561.551863
 31
0.0
  0
LINE
  5
2B8A
100
AcDbEntity
  8
LJ
 62
     5
100
AcDbLine
 10
15612.544421
 20
8896.881883
 30
0.0
 11
15255.026613
 21
7648.668221
 31
0.0
  0
LINE
  5
2B8B
100
AcDbEntity
  8
LJ
 62
     5
100
AcDbLine
 10
15557.82521
 20
8912.515435
 30
0.0
 11
15200.295188
 21
7664.401023
 31
0.0
  0
LINE
  5
2B8C
100
AcDbEntity
  8
LJ
 62
     5
100
AcDbLine
 10
15465.350467
 20
9123.600872
 30
0.0
 11
15010.699425
 21
7536.485713
 31
0.0
  0
POINT
  5
2B8D
100
AcDbEntity
  8
LJ
 62
     5
100
AcDbPoint
 10
15237.6965
 20
8328.896739
 30
0.0
  0
LINE
  5
2B8E
100
AcDbEntity
  8
LJ
 62
     5
100
AcDbLine
 10
15820.922947
 20
7433.678107
 30
0.0
 11
15649.463347
 21
8939.107383
 31
0.0
  0
LINE
  5
2B8F
100
AcDbEntity
  8
LJ
 62
     5
100
AcDbLine
 10
16206.522502
 20
8779.552947
 30
0.0
 11
15263.963044
 21
7593.244758
 31
0.0
  0
LINE
  5
2B90
100
AcDbEntity
  8
LJ
 62
     5
100
AcDbLine
 10
15154.145329
 20
7692.272883
 30
0.0
 11
15118.333844
 21
7567.363566
 31
0.0
  0
LINE
  5
2B91
100
AcDbEntity
  8
LJ
 62
     5
100
AcDbLine
 10
15184.951225
 20
7683.469658
 30
0.0
 11
15149.13974
 21
7558.560341
 31
0.0
  0
LINE
  5
2B92
100
AcDbEntity
  8
LJ
 62
     5
100
AcDbLine
 10
14935.680459
 20
7619.645407
 30
0.0
 11
14971.47973
 21
7744.653975
 31
0.0
  0
LINE
  5
2B93
100
AcDbEntity
  8
LJ
 62
     5
100
AcDbLine
 10
14904.973814
 20
7628.460846
 30
0.0
 11
14940.773085
 21
7753.469415
 31
0.0
  0
ARC
  5
2B94
100
AcDbEntity
  8
LJ
 62
     5
100
AcDbCircle
 10
15044.96252
 20
7655.965252
 30
0.0
 40
74.9999
100
AcDbArc
 50
244.418727
 51
83.613227
  0
ARC
  5
2B95
100
AcDbEntity
  8
LJ
 62
     5
100
AcDbCircle
 10
15044.96252
 20
7655.965252
 30
0.0
 40
75.0
100
AcDbArc
 50
64.417627
 51
263.613727
  0
LINE
  5
2B96
100
AcDbEntity
  8
LJ
 62
     5
100
AcDbLine
 10
15159.680366
 20
7570.335959
 30
0.0
 11
15156.866226
 21
7571.097941
 31
0.0
  0
LINE
  5
2B97
100
AcDbEntity
  8
LJ
 62
     5
100
AcDbLine
 10
15118.333844
 20
7567.363566
 30
0.0
 11
15149.13974
 21
7558.560341
 31
0.0
  0
LINE
  5
2B98
100
AcDbEntity
  8
LJ
 62
     5
100
AcDbLine
 10
15119.757017
 20
7572.173408
 30
0.0
 11
15036.596936
 21
7581.485812
 31
0.0
  0
LINE
  5
2B99
100
AcDbEntity
  8
LJ
 62
     5
100
AcDbLine
 10
14935.680459
 20
7619.645407
 30
0.0
 11
14904.973814
 21
7628.460846
 31
0.0
  0
LINE
  5
2B9A
100
AcDbEntity
  8
LJ
 62
     5
100
AcDbLine
 10
14937.103632
 20
7624.455249
 30
0.0
 11
15012.584369
 21
7588.303924
 31
0.0
  0
LINE
  5
2B9B
100
AcDbEntity
  8
LJ
 62
     5
100
AcDbLine
 10
15152.821407
 20
7687.475256
 30
0.0
 11
15077.34067
 21
7723.626581
 31
0.0
  0
LINE
  5
2B9C
100
AcDbEntity
  8
LJ
 62
     5
100
AcDbLine
 10
15154.145329
 20
7692.272883
 30
0.0
 11
15184.951225
 21
7683.469658
 31
0.0
  0
LINE
  5
2B9D
100
AcDbEntity
  8
LJ
 62
     5
100
AcDbLine
 10
14971.47973
 20
7744.653975
 30
0.0
 11
14940.773085
 21
7753.469415
 31
0.0
  0
LINE
  5
2B9E
100
AcDbEntity
  8
LJ
 62
     5
100
AcDbLine
 10
14970.155808
 20
7739.856348
 30
0.0
 11
15053.315889
 21
7730.543944
 31
0.0
  0
LINE
  5
2B9F
100
AcDbEntity
  8
LJ
 62
     5
100
AcDbLine
 10
16508.564739
 20
7292.913957
 30
0.0
 11
16507.628684
 21
7289.876886
 31
0.0
  0
LINE
  5
2BA0
100
AcDbEntity
  8
LJ
 62
     5
100
AcDbLine
 10
16508.564739
 20
7292.913957
 30
0.0
 11
16508.044054
 21
7293.051388
 31
0.0
  0
LINE
  5
2BA1
100
AcDbEntity
  8
LJ
 62
     5
100
AcDbLine
 10
16431.593518
 20
7314.977753
 30
0.0
 11
16431.130828
 21
7313.00648
 31
0.0
  0
LINE
  5
2BA2
100
AcDbEntity
  8
LJ
 62
     5
100
AcDbLine
 10
16457.391069
 20
7307.573272
 30
0.0
 11
16431.593518
 21
7314.977753
 31
0.0
  0
LINE
  5
2BA3
100
AcDbEntity
  8
LJ
 62
     5
100
AcDbLine
 10
16508.044054
 20
7293.051388
 30
0.0
 11
16457.391069
 21
7307.573272
 31
0.0
  0
LINE
  5
2BA4
100
AcDbEntity
  8
LJ
 62
     5
100
AcDbLine
 10
15538.321711
 20
9033.337881
 30
0.0
 11
15462.840974
 21
9069.489206
 31
0.0
  0
LINE
  5
2BA5
100
AcDbEntity
  8
LJ
 62
     5
100
AcDbLine
 10
15503.933399
 20
8913.238405
 30
0.0
 11
15534.640043
 21
8904.422966
 31
0.0
  0
LINE
  5
2BA6
100
AcDbEntity
  8
LJ
 62
     5
100
AcDbLine
 10
15539.744884
 20
9038.147723
 30
0.0
 11
15503.933399
 21
8913.238405
 31
0.0
  0
LINE
  5
2BA7
100
AcDbEntity
  8
LJ
 62
     5
100
AcDbLine
 10
15570.451529
 20
9029.332283
 30
0.0
 11
15534.640043
 21
8904.422966
 31
0.0
  0
LINE
  5
2BA8
100
AcDbEntity
  8
LJ
 62
     5
100
AcDbLine
 10
15539.744884
 20
9038.147723
 30
0.0
 11
15570.451529
 21
9029.332283
 31
0.0
  0
LINE
  5
2BA9
100
AcDbEntity
  8
LJ
 62
     5
100
AcDbLine
 10
15505.25732
 20
8918.036033
 30
0.0
 11
15422.097239
 21
8927.348437
 31
0.0
  0
LINE
  5
2BAA
100
AcDbEntity
  8
LJ
 62
     5
100
AcDbLine
 10
15357.079285
 20
9090.528815
 30
0.0
 11
15326.273389
 21
9099.33204
 31
0.0
  0
LINE
  5
2BAB
100
AcDbEntity
  8
LJ
 62
     5
100
AcDbLine
 10
15326.273389
 20
9099.33204
 30
0.0
 11
15290.474117
 21
8974.323472
 31
0.0
  0
LINE
  5
2BAC
100
AcDbEntity
  8
LJ
 62
     5
100
AcDbLine
 10
15321.280013
 20
8965.520246
 30
0.0
 11
15290.474117
 21
8974.323472
 31
0.0
  0
LINE
  5
2BAD
100
AcDbEntity
  8
LJ
 62
     5
100
AcDbLine
 10
15357.079285
 20
9090.528815
 30
0.0
 11
15321.280013
 21
8965.520246
 31
0.0
  0
ARC
  5
2BAE
100
AcDbEntity
  8
LJ
 62
     5
100
AcDbCircle
 10
15430.462823
 20
9001.827877
 30
0.0
 40
74.9999
100
AcDbArc
 50
244.418727
 51
83.613227
  0
LINE
  5
2BAF
100
AcDbEntity
  8
LJ
 62
     5
100
AcDbLine
 10
15355.656111
 20
9085.718973
 30
0.0
 11
15438.816193
 21
9076.406569
 31
0.0
  0
LINE
  5
2BB0
100
AcDbEntity
  8
LJ
 62
     5
100
AcDbLine
 10
15322.603935
 20
8970.317874
 30
0.0
 11
15398.084672
 21
8934.166549
 31
0.0
  0
ARC
  5
2BB1
100
AcDbEntity
  8
LJ
 62
     5
100
AcDbCircle
 10
15430.462823
 20
9001.827877
 30
0.0
 40
75.0
100
AcDbArc
 50
64.417627
 51
263.613727
  0
LINE
  5
2BB2
100
AcDbEntity
  8
LJ
 62
     5
100
AcDbLine
 10
17916.400923
 20
8236.937812
 30
0.0
 11
17558.883115
 21
6988.724149
 31
0.0
  0
LINE
  5
2BB3
100
AcDbEntity
  8
LJ
 62
     5
100
AcDbLine
 10
17971.2316
 20
8221.217223
 30
0.0
 11
17613.713792
 21
6973.003561
 31
0.0
  0
LINE
  5
2BB4
100
AcDbEntity
  8
LJ
 62
     5
100
AcDbLine
 10
17458.862753
 20
8368.034849
 30
0.0
 11
17101.344945
 21
7119.821187
 31
0.0
  0
LINE
  5
2BB5
100
AcDbEntity
  8
LJ
 62
     5
100
AcDbLine
 10
17404.044291
 20
8383.656187
 30
0.0
 11
17046.514269
 21
7135.541775
 31
0.0
  0
LINE
  5
2BB6
100
AcDbEntity
  8
LJ
 62
     5
100
AcDbLine
 10
22718.779703
 20
6861.309147
 30
0.0
 11
22361.261895
 21
5613.095484
 31
0.0
  0
LINE
  5
2BB7
100
AcDbEntity
  8
LJ
 62
     5
100
AcDbLine
 10
22773.61038
 20
6845.588558
 30
0.0
 11
22416.092572
 21
5597.374896
 31
0.0
  0
LINE
  5
2BB8
100
AcDbEntity
  8
LJ
 62
     5
100
AcDbLine
 10
22964.305596
 20
6977.669346
 30
0.0
 11
22508.617709
 21
5386.698677
 31
0.0
  0
LINE
  5
2BB9
100
AcDbEntity
  8
LJ
 62
     5
100
AcDbLine
 10
22955.427547
 20
6946.652734
 30
0.0
 11
22516.709348
 21
5415.099652
 31
0.0
  0
POINT
  5
2BBA
100
AcDbEntity
  8
LJ
 62
     5
100
AcDbPoint
 10
22736.136266
 20
6181.047972
 30
0.0
  0
LINE
  5
2BBB
100
AcDbEntity
  8
LJ
 62
     5
100
AcDbLine
 10
22709.954738
 20
6916.645572
 30
0.0
 11
21767.39528
 21
5730.337384
 31
0.0
  0
LINE
  5
2BBC
100
AcDbEntity
  8
LJ
 62
     5
100
AcDbLine
 10
22324.454434
 20
5570.782947
 30
0.0
 11
22152.895583
 21
7076.200009
 31
0.0
  0
LINE
  5
2BBD
100
AcDbEntity
  8
LJ
 62
     5
100
AcDbLine
 10
22683.344413
 20
5535.554644
 30
0.0
 11
22647.532927
 21
5410.645327
 31
0.0
  0
LINE
  5
2BBE
100
AcDbEntity
  8
LJ
 62
     5
100
AcDbLine
 10
22469.972169
 20
5596.751176
 30
0.0
 11
22434.172898
 21
5471.742608
 31
0.0
  0
LINE
  5
2BBF
100
AcDbEntity
  8
LJ
 62
     5
100
AcDbLine
 10
22439.166273
 20
5605.554402
 30
0.0
 11
22403.367002
 21
5480.545833
 31
0.0
  0
ARC
  5
2BC0
100
AcDbEntity
  8
LJ
 62
     5
100
AcDbCircle
 10
22543.355707
 20
5508.050239
 30
0.0
 40
75.0
100
AcDbArc
 50
244.417727
 51
83.613727
  0
ARC
  5
2BC1
100
AcDbEntity
  8
LJ
 62
     5
100
AcDbCircle
 10
22543.355707
 20
5508.050239
 30
0.0
 40
74.9999
100
AcDbArc
 50
67.736827
 51
260.294727
  0
LINE
  5
2BC2
100
AcDbEntity
  8
LJ
 62
     5
100
AcDbLine
 10
22640.330379
 20
5412.680836
 30
0.0
 11
22647.532927
 21
5410.645327
 31
0.0
  0
LINE
  5
2BC3
100
AcDbEntity
  8
LJ
 62
     5
100
AcDbLine
 10
22616.826283
 20
5419.460767
 30
0.0
 11
22647.532927
 21
5410.645327
 31
0.0
  0
LINE
  5
2BC4
100
AcDbEntity
  8
LJ
 62
     5
100
AcDbLine
 10
22403.457291
 20
5495.367839
 30
0.0
 11
22400.742403
 21
5496.142034
 31
0.0
  0
LINE
  5
2BC5
100
AcDbEntity
  8
LJ
 62
     5
100
AcDbLine
 10
22434.172898
 20
5471.742608
 30
0.0
 11
22403.367002
 21
5480.545833
 31
0.0
  0
LINE
  5
2BC6
100
AcDbEntity
  8
LJ
 62
     5
100
AcDbLine
 10
22435.496819
 20
5476.540235
 30
0.0
 11
22510.977557
 21
5440.38891
 31
0.0
  0
LINE
  5
2BC7
100
AcDbEntity
  8
LJ
 62
     5
100
AcDbLine
 10
22616.826283
 20
5419.460767
 30
0.0
 11
22530.687214
 21
5434.149567
 31
0.0
  0
LINE
  5
2BC8
100
AcDbEntity
  8
LJ
 62
     5
100
AcDbLine
 10
22444.033225
 20
5536.532066
 30
0.0
 11
22665.43867
 21
5473.099986
 31
0.0
  0
LINE
  5
2BC9
100
AcDbEntity
  8
LJ
 62
     5
100
AcDbLine
 10
22652.637768
 20
5544.370084
 30
0.0
 11
22683.344413
 21
5535.554644
 31
0.0
  0
LINE
  5
2BCA
100
AcDbEntity
  8
LJ
 62
     5
100
AcDbLine
 10
22468.548996
 20
5591.941334
 30
0.0
 11
22551.709077
 21
5582.62893
 31
0.0
  0
LINE
  5
2BCB
100
AcDbEntity
  8
LJ
 62
     5
100
AcDbLine
 10
22469.972169
 20
5596.751176
 30
0.0
 11
22439.166273
 21
5605.554402
 31
0.0
  0
LINE
  5
2BCC
100
AcDbEntity
  8
LJ
 62
     5
100
AcDbLine
 10
22652.637768
 20
5544.370084
 30
0.0
 11
22571.792849
 21
5577.44317
 31
0.0
  0
LINE
  5
2BCD
100
AcDbEntity
  8
LJ
 62
     5
100
AcDbLine
 10
23038.138071
 20
6890.232709
 30
0.0
 11
23068.844716
 21
6881.41727
 31
0.0
  0
LINE
  5
2BCE
100
AcDbEntity
  8
LJ
 62
     5
100
AcDbLine
 10
23068.844716
 20
6881.41727
 30
0.0
 11
23033.132482
 21
6756.520167
 31
0.0
  0
LINE
  5
2BCF
100
AcDbEntity
  8
LJ
 62
     5
100
AcDbLine
 10
23002.326586
 20
6765.323392
 30
0.0
 11
23033.132482
 21
6756.520167
 31
0.0
  0
LINE
  5
2BD0
100
AcDbEntity
  8
LJ
 62
     5
100
AcDbLine
 10
22821.096374
 20
6822.415075
 30
0.0
 11
22896.47786
 21
6786.251536
 31
0.0
  0
LINE
  5
2BD1
100
AcDbEntity
  8
LJ
 62
     5
100
AcDbLine
 10
22854.049299
 20
6937.80396
 30
0.0
 11
22937.20938
 21
6928.491555
 31
0.0
  0
LINE
  5
2BD2
100
AcDbEntity
  8
LJ
 62
     5
100
AcDbLine
 10
22819.673201
 20
6817.605233
 30
0.0
 11
22788.867305
 21
6826.408458
 31
0.0
  0
LINE
  5
2BD3
100
AcDbEntity
  8
LJ
 62
     5
100
AcDbLine
 10
22855.472472
 20
6942.613801
 30
0.0
 11
22824.666576
 21
6951.417027
 31
0.0
  0
LINE
  5
2BD4
100
AcDbEntity
  8
LJ
 62
     5
100
AcDbLine
 10
22824.666576
 20
6951.417027
 30
0.0
 11
22788.867305
 21
6826.408458
 31
0.0
  0
LINE
  5
2BD5
100
AcDbEntity
  8
LJ
 62
     5
100
AcDbLine
 10
22855.472472
 20
6942.613801
 30
0.0
 11
22819.673201
 21
6817.605233
 31
0.0
  0
ARC
  5
2BD6
100
AcDbEntity
  8
LJ
 62
     5
100
AcDbCircle
 10
22928.856011
 20
6853.912864
 30
0.0
 40
75.0
100
AcDbArc
 50
244.417727
 51
83.613727
  0
ARC
  5
2BD7
100
AcDbEntity
  8
LJ
 62
     5
100
AcDbCircle
 10
22928.856011
 20
6853.912864
 30
0.0
 40
74.9999
100
AcDbArc
 50
67.736827
 51
260.294727
  0
LINE
  5
2BD8
100
AcDbEntity
  8
LJ
 62
     5
100
AcDbLine
 10
23038.138071
 20
6890.232709
 30
0.0
 11
22957.293152
 21
6923.305796
 31
0.0
  0
LINE
  5
2BD9
100
AcDbEntity
  8
LJ
 62
     5
100
AcDbLine
 10
23002.326586
 20
6765.323392
 30
0.0
 11
22916.286769
 21
6780.024406
 31
0.0
  0
LINE
  5
2BDA
100
AcDbEntity
  8
LJ
 62
     5
100
AcDbLine
 10
9939.233665
 20
9848.190538
 30
0.0
 11
15422.728087
 21
8275.840342
 31
0.0
  0
LINE
  5
2BDB
100
AcDbEntity
  8
LJ
 62
     5
100
AcDbLine
 10
15322.61713
 20
9085.847003
 30
0.0
 11
11103.019933
 21
9884.984317
 31
0.0
  0
LINE
  5
2BDC
100
AcDbEntity
  8
LJ
 62
     5
100
AcDbLine
 10
15294.45468
 20
8987.718959
 30
0.0
 11
10584.487491
 21
9879.79205
 31
0.0
  0
LINE
  5
2BDD
100
AcDbEntity
  8
LJ
 62
     5
100
AcDbLine
 10
14936.730739
 20
7740.021943
 30
0.0
 11
10469.718812
 21
9479.485403
 31
0.0
  0
LINE
  5
2BDE
100
AcDbEntity
  8
LJ
 62
     5
100
AcDbLine
 10
14908.613953
 20
7641.978573
 30
0.0
 11
10582.479387
 21
9326.630708
 31
0.0
  0
CIRCLE
  5
2BDF
100
AcDbEntity
  8
LJ
 62
     5
100
AcDbCircle
 10
10362.464912
 20
9466.826824
 30
0.0
 40
250.0
  0
LINE
  5
2BE0
100
AcDbEntity
  8
LJ
 62
     5
100
AcDbLine
 10
10088.134606
 20
9545.480644
 30
0.0
 11
10647.034021
 21
9385.198631
 31
0.0
  0
LINE
  5
2BE1
100
AcDbEntity
  8
LJ
 62
     5
100
AcDbLine
 10
10231.765241
 20
9192.15115
 30
0.0
 11
10472.056745
 21
9123.221527
 31
0.0
  0
LINE
  5
2BE2
100
AcDbEntity
  8
LJ
 62
     5
100
AcDbLine
 10
10081.479983
 20
9889.33267
 30
0.0
 11
10966.924023
 21
10103.134803
 31
0.0
  0
POINT
  5
2BE3
100
AcDbEntity
  8
LJ
 62
     5
100
AcDbPoint
 10
10362.494627
 20
9466.799265
 30
0.0
  0
ARC
  5
2BE4
100
AcDbEntity
  8
LJ
 62
     5
100
AcDbCircle
 10
10342.027912
 20
9576.654822
 30
0.0
 40
400.0
100
AcDbArc
 50
178.478
 51
254.0
  0
LINE
  5
2BE5
100
AcDbEntity
  8
LJ
 62
     5
100
AcDbLine
 10
9942.149802
 20
9587.301296
 30
0.0
 11
10008.592655
 21
9819.126634
 31
0.0
  0
ARC
  5
2BE6
100
AcDbEntity
  8
LJ
 62
     5
100
AcDbCircle
 10
10104.896635
 20
9792.162148
 30
0.0
 40
100.0
100
AcDbArc
 50
103.5719
 51
164.0
  0
LINE
  5
2BE7
100
AcDbEntity
  8
LJ
 62
     5
100
AcDbLine
 10
11526.222001
 20
9068.181696
 30
0.0
 11
11698.415457
 21
9668.743295
 31
0.0
  0
LINE
  5
2BE8
100
AcDbEntity
  8
LJ
 62
     5
100
AcDbLine
 10
11472.895016
 20
9088.937482
 30
0.0
 11
11642.188978
 21
9679.470973
 31
0.0
  0
LINE
  5
2BE9
100
AcDbEntity
  8
LJ
 62
     5
100
AcDbLine
 10
12313.17803
 20
9604.082031
 30
0.0
 11
11532.200381
 21
9011.286187
 31
0.0
  0
LINE
  5
2BEA
100
AcDbEntity
  8
LJ
 62
     5
100
AcDbLine
 10
12081.779147
 20
8797.267729
 30
0.0
 11
11733.690055
 21
9713.777868
 31
0.0
  0
LINE
  5
2BEB
100
AcDbEntity
  8
LJ
 62
     5
100
AcDbLine
 10
10281.710914
 20
9184.984578
 30
0.0
 11
10443.80577
 21
9750.453894
 31
0.0
  0
LINE
  5
2BEC
100
AcDbEntity
  8
LJ
 62
     5
100
AcDbLine
 10
10533.938235
 20
9157.518629
 30
0.0
 11
10582.479387
 21
9326.630708
 31
0.0
  0
ARC
  5
2BED
100
AcDbEntity
  8
LJ
 62
     5
100
AcDbCircle
 10
10485.793218
 20
9171.354357
 30
0.0
 40
50.0
100
AcDbArc
 50
254.0
 51
344.0
  0
LINE
  5
2BEE
100
AcDbEntity
  8
LJ
 62
     5
100
AcDbLine
 10
10554.507962
 20
9773.617758
 30
0.0
 11
10518.623871
 21
9648.209816
 31
0.0
  0
LINE
  5
2BEF
100
AcDbEntity
  8
LJ
 62
     5
100
AcDbLine
 10
10584.487491
 20
9879.79205
 30
0.0
 11
10538.775842
 21
9720.403846
 31
0.0
  0
LINE
  5
2BF0
100
AcDbEntity
  8
LJ
 62
     5
100
AcDbLine
 10
10530.051228
 20
9689.71181
 30
0.0
 11
10469.718812
 21
9479.485403
 31
0.0
  0
ARC
  5
2BF1
100
AcDbEntity
  8
LJ
 62
     5
100
AcDbCircle
 10
11119.620671
 20
9942.647596
 30
0.0
 40
50.0
100
AcDbArc
 50
174.236
 51
254.0
  0
ARC
  5
2BF2
100
AcDbEntity
  8
LJ
 62
     5
100
AcDbCircle
 10
10988.042368
 20
10015.656431
 30
0.0
 40
89.9999
100
AcDbArc
 50
352.458
 51
103.0553
  0
LINE
  5
2BF3
100
AcDbEntity
  8
LJ
 62
     5
100
AcDbLine
 10
11077.247385
 20
10003.839708
 30
0.0
 11
11069.946629
 21
9949.243014
 31
0.0
  0
LINE
  5
2BF4
100
AcDbEntity
  8
LJ
 62
     5
100
AcDbLine
 10
11105.772757
 20
9894.601833
 30
0.0
 11
11103.019933
 21
9884.984317
 31
0.0
  0
LINE
  5
2BF5
100
AcDbEntity
  8
LJ
 62
     5
100
AcDbLine
 10
15208.793618
 20
9003.99585
 30
0.0
 11
14855.433076
 21
7771.747037
 31
0.0
  0
LINE
  5
2BF6
100
AcDbEntity
  8
LJ
 62
     5
100
AcDbLine
 10
14638.890887
 20
9163.632082
 30
0.0
 11
14813.475504
 21
7733.548972
 31
0.0
  0
LINE
  5
2BF7
100
AcDbEntity
  8
LJ
 62
     5
100
AcDbLine
 10
14287.492949
 20
7938.374563
 30
0.0
 11
15193.420851
 21
9058.629613
 31
0.0
  0
LINE
  5
2BF8
100
AcDbEntity
  8
LJ
 62
     5
100
AcDbLine
 10
15457.197907
 20
9094.644398
 30
0.0
 11
15003.948443
 21
7514.02549
 31
0.0
  0
LINE
  5
2BF9
100
AcDbEntity
  8
LJ
 62
     5
100
AcDbLine
 10
15467.033545
 20
9128.596132
 30
0.0
 11
15011.797102
 21
7541.184439
 31
0.0
  0
LINE
  5
2BFA
100
AcDbEntity
  8
LJ
 62
     5
100
AcDbLine
 10
15265.00791
 20
8993.367426
 30
0.0
 11
14908.760061
 21
7750.991251
 31
0.0
  0
CIRCLE
  5
2BFB
100
AcDbEntity
  8
LJ
 62
     5
100
AcDbCircle
 10
15044.74338
 20
7656.055814
 30
0.0
 40
35.0
  0
ARC
  5
2BFC
100
AcDbEntity
  8
LJ
 62
     5
100
AcDbCircle
 10
15044.74338
 20
7656.055814
 30
0.0
 40
74.9999
100
AcDbArc
 50
244.403
 51
83.5975
  0
CIRCLE
  5
2BFD
100
AcDbEntity
  8
LJ
 62
     5
100
AcDbCircle
 10
15044.74338
 20
7656.055814
 30
0.0
 40
34.9999
  0
LINE
  5
2BFE
100
AcDbEntity
  8
LJ
 62
     5
100
AcDbLine
 10
14971.396379
 20
7744.677637
 30
0.0
 11
14935.562795
 21
7619.6789
 31
0.0
  0
LINE
  5
2BFF
100
AcDbEntity
  8
LJ
 62
     5
100
AcDbLine
 10
14936.875847
 20
7624.575419
 30
0.0
 11
15012.346658
 21
7588.403376
 31
0.0
  0
LINE
  5
2C00
100
AcDbEntity
  8
LJ
 62
     5
100
AcDbLine
 10
14969.971886
 20
7739.868186
 30
0.0
 11
15053.129408
 21
7730.532955
 31
0.0
  0
LINE
  5
2C01
100
AcDbEntity
  8
LJ
 62
     5
100
AcDbLine
 10
14971.396379
 20
7744.677637
 30
0.0
 11
14940.592901
 21
7753.489318
 31
0.0
  0
LINE
  5
2C02
100
AcDbEntity
  8
LJ
 62
     5
100
AcDbLine
 10
14935.562795
 20
7619.6789
 30
0.0
 11
14904.78311
 21
7628.620404
 31
0.0
  0
LINE
  5
2C03
100
AcDbEntity
  8
LJ
 62
     5
100
AcDbLine
 10
14940.592901
 20
7753.489318
 30
0.0
 11
14904.78311
 21
7628.620404
 31
0.0
  0
POINT
  5
2C04
100
AcDbEntity
  8
LJ
 62
     5
100
AcDbPoint
 10
15237.6965
 20
8328.896739
 30
0.0
  0
CIRCLE
  5
2C05
100
AcDbEntity
  8
LJ
 62
     5
100
AcDbCircle
 10
15430.613102
 20
9001.812571
 30
0.0
 40
35.0
  0
ARC
  5
2C06
100
AcDbEntity
  8
LJ
 62
     5
100
AcDbCircle
 10
15430.613102
 20
9001.812571
 30
0.0
 40
74.9999
100
AcDbArc
 50
244.403
 51
83.5975
  0
CIRCLE
  5
2C07
100
AcDbEntity
  8
LJ
 62
     5
100
AcDbCircle
 10
15430.613102
 20
9001.812571
 30
0.0
 40
34.9999
  0
LINE
  5
2C08
100
AcDbEntity
  8
LJ
 62
     5
100
AcDbLine
 10
15326.462623
 20
9099.246075
 30
0.0
 11
15290.616852
 21
8974.346593
 31
0.0
  0
LINE
  5
2C09
100
AcDbEntity
  8
LJ
 62
     5
100
AcDbLine
 10
15355.841608
 20
9085.624943
 30
0.0
 11
15438.99913
 21
9076.289712
 31
0.0
  0
LINE
  5
2C0A
100
AcDbEntity
  8
LJ
 62
     5
100
AcDbLine
 10
15357.266101
 20
9090.434394
 30
0.0
 11
15326.462623
 21
9099.246075
 31
0.0
  0
LINE
  5
2C0B
100
AcDbEntity
  8
LJ
 62
     5
100
AcDbLine
 10
15321.432517
 20
8965.435657
 30
0.0
 11
15290.616852
 21
8974.346593
 31
0.0
  0
LINE
  5
2C0C
100
AcDbEntity
  8
LJ
 62
     5
100
AcDbLine
 10
15322.745569
 20
8970.332175
 30
0.0
 11
15398.21638
 21
8934.160133
 31
0.0
  0
LINE
  5
2C0D
100
AcDbEntity
  8
LJ
 62
     5
100
AcDbLine
 10
15357.266101
 20
9090.434394
 30
0.0
 11
15321.432517
 21
8965.435657
 31
0.0
  0
LINE
  5
2C0E
100
AcDbEntity
  8
SUPORT2
 62
     5
100
AcDbLine
 10
31491.919984
 20
14290.537868
 30
0.0
 11
30814.997543
 21
12106.520644
 31
0.0
  0
LINE
  5
2C0F
100
AcDbEntity
  8
SUPORT2
 62
     5
100
AcDbLine
 10
31635.832195
 20
14248.326905
 30
0.0
 11
30321.148683
 21
9500.356763
 31
0.0
  0
LINE
  5
2C10
100
AcDbEntity
  8
SUPORT2
 62
     5
100
AcDbLine
 10
33934.449288
 20
6317.471564
 30
0.0
 11
38002.367906
 21
7228.185788
 31
0.0
  0
LINE
  5
2C11
100
AcDbEntity
  8
SUPORT2
 62
     5
100
AcDbLine
 10
35224.937694
 20
10543.584591
 30
0.0
 11
37963.05094
 21
7553.514031
 31
0.0
  0
LINE
  5
2C12
100
AcDbEntity
  8
SUPORT2
 62
     5
100
AcDbLine
 10
35281.136335
 20
10600.70484
 30
0.0
 11
38022.086967
 21
7607.574992
 31
0.0
  0
LINE
  5
2C13
100
AcDbEntity
  8
SUPORT2
 62
     5
100
AcDbLine
 10
34005.25272
 20
6025.876426
 30
0.0
 11
38037.467342
 21
7082.354654
 31
0.0
  0
LINE
  5
2C14
100
AcDbEntity
  8
SUPORT2
 62
     5
100
AcDbLine
 10
34007.624875
 20
6016.132563
 30
0.0
 11
33932.17153
 21
6327.110123
 31
0.0
  0
LINE
  5
2C15
100
AcDbEntity
  8
SUPORT2
 62
     5
100
AcDbLine
 10
33995.956572
 20
6013.364767
 30
0.0
 11
33920.503227
 21
6324.342326
 31
0.0
  0
LINE
  5
2C16
100
AcDbEntity
  8
SUPORT2
 62
     5
100
AcDbLine
 10
30316.703305
 20
9484.976301
 30
0.0
 11
28969.855414
 21
5160.290111
 31
0.0
  0
LINE
  5
2C17
100
AcDbEntity
  8
SUPORT2
 62
     5
100
AcDbLine
 10
30028.779031
 20
9569.403681
 30
0.0
 11
28825.943202
 21
5202.501073
 31
0.0
  0
LINE
  5
2C18
100
AcDbEntity
  8
SUPORT2
 62
     5
100
AcDbLine
 10
33922.875382
 20
6314.598463
 30
0.0
 11
29276.1093
 21
5108.91232
 31
0.0
  0
LINE
  5
2C19
100
AcDbEntity
  8
SUPORT2
 62
     5
100
AcDbLine
 10
33993.584416
 20
6023.10863
 30
0.0
 11
29311.513742
 21
4963.164677
 31
0.0
  0
ARC
  5
2C1A
100
AcDbEntity
  8
SUPORT2
 62
     5
100
AcDbCircle
 10
28821.602701
 20
4921.319353
 30
0.0
 40
80.0
100
AcDbArc
 50
164.767865
 51
285.082865
  0
POINT
  5
2C1B
100
AcDbEntity
  8
SUPORT2
  6
CONTINUOUS
 62
     5
100
AcDbPoint
 10
28821.575816
 20
4921.292578
 30
0.0
  0
LINE
  5
2C1C
100
AcDbEntity
  8
SUPORT2
 62
     5
100
AcDbLine
 10
29106.487235
 20
5061.792418
 30
0.0
 11
29002.002877
 21
5092.435998
 31
0.0
  0
ARC
  5
2C1D
100
AcDbEntity
  8
SUPORT2
 62
     5
100
AcDbCircle
 10
29083.966247
 20
4985.006318
 30
0.0
 40
84.9999
100
AcDbArc
 50
103.650865
 51
283.650865
  0
LINE
  5
2C1E
100
AcDbEntity
  8
SUPORT2
 62
     5
100
AcDbLine
 10
29106.487235
 20
5061.792418
 30
0.0
 11
28958.829759
 21
5105.109272
 31
0.0
  0
LINE
  5
2C1F
100
AcDbEntity
  8
SUPORT2
 62
     5
100
AcDbLine
 10
28840.491
 20
4843.573599
 30
0.0
 11
29102.854546
 21
4907.260565
 31
0.0
  0
LINE
  5
2C20
100
AcDbEntity
  8
SUPORT2
 62
     5
100
AcDbLine
 10
28974.682681
 20
5158.824678
 30
0.0
 11
28821.110482
 21
5203.866655
 31
0.0
  0
LINE
  5
2C21
100
AcDbEntity
  8
SUPORT2
 62
     5
100
AcDbLine
 10
28974.682681
 20
5158.824678
 30
0.0
 11
28958.829759
 21
5105.109272
 31
0.0
  0
LINE
  5
2C22
100
AcDbEntity
  8
SUPORT2
 62
     5
100
AcDbLine
 10
28812.736753
 20
4881.844108
 30
0.0
 11
28846.289212
 21
4889.225333
 31
0.0
  0
LINE
  5
2C23
100
AcDbEntity
  8
SUPORT2
 62
     5
100
AcDbLine
 10
28821.110482
 20
5203.866655
 30
0.0
 11
28744.816601
 21
4943.840341
 31
0.0
  0
LINE
  5
2C24
100
AcDbEntity
  8
SUPORT2
  6
DASHED
 62
     5
100
AcDbLine
 10
28846.289212
 20
4889.225333
 30
0.0
 11
28900.117302
 21
4901.107538
 31
0.0
  0
LINE
  5
2C25
100
AcDbEntity
  8
SUPORT2
  6
CENTER
 62
     5
100
AcDbLine
 10
28909.918694
 20
4895.36448
 30
0.0
 11
28721.257559
 21
4950.735377
 31
0.0
  0
ARC
  5
2C26
100
AcDbEntity
  8
SUPORT2
 62
     5
100
AcDbCircle
 10
29083.966247
 20
4985.006318
 30
0.0
 40
80.0
100
AcDbArc
 50
283.649865
 51
73.650665
  0
LINE
  5
2C27
100
AcDbEntity
  8
SUPORT2
 62
     5
100
AcDbLine
 10
29273.737144
 20
5118.656184
 30
0.0
 11
29063.841945
 21
5067.62673
 31
0.0
  0
LINE
  5
2C28
100
AcDbEntity
  8
SUPORT2
 62
     5
100
AcDbLine
 10
29313.885898
 20
4953.420814
 30
0.0
 11
29103.996152
 21
4902.491211
 31
0.0
  0
LINE
  5
2C29
100
AcDbEntity
  8
SUPORT2
 62
     5
100
AcDbLine
 10
29313.885898
 20
4953.420814
 30
0.0
 11
29273.737144
 21
5118.656184
 31
0.0
  0
LINE
  5
2C2A
100
AcDbEntity
  8
SUPORT2
 62
     5
100
AcDbLine
 10
34007.624875
 20
6016.132563
 30
0.0
 11
33995.956572
 21
6013.364767
 31
0.0
  0
LINE
  5
2C2B
100
AcDbEntity
  8
SUPORT2
  6
DASHED
 62
     5
100
AcDbLine
 10
34000.60826
 20
6045.3587
 30
0.0
 11
34002.339756
 21
6038.554149
 31
0.0
  0
ARC
  5
2C2C
100
AcDbEntity
  8
SUPORT2
  6
DASHED
 62
     5
100
AcDbCircle
 10
33752.794566
 20
5963.851751
 30
0.0
 40
2.0
100
AcDbArc
 50
193.650865
 51
283.650865
  0
ARC
  5
2C2D
100
AcDbEntity
  8
SUPORT2
 62
     5
100
AcDbCircle
 10
33752.794566
 20
5963.851751
 30
0.0
 40
4.3
100
AcDbArc
 50
193.650865
 51
283.650865
  0
ARC
  5
2C2E
100
AcDbEntity
  8
SUPORT2
  6
DASHED
 62
     5
100
AcDbCircle
 10
33752.794566
 20
5963.851751
 30
0.0
 40
2.0
100
AcDbArc
 50
193.650865
 51
283.650865
  0
ARC
  5
2C2F
100
AcDbEntity
  8
SUPORT2
 62
     5
100
AcDbCircle
 10
33752.794566
 20
5963.851751
 30
0.0
 40
4.3
100
AcDbArc
 50
193.650865
 51
283.650865
  0
LINE
  5
2C30
100
AcDbEntity
  8
SUPORT2
 62
     5
100
AcDbLine
 10
30814.930846
 20
12106.55429
 30
0.0
 11
30033.32426
 21
9584.778689
 31
0.0
  0
LINE
  5
2C31
100
AcDbEntity
  8
SUPORT2
 62
     5
100
AcDbLine
 10
33932.17153
 20
6327.110123
 30
0.0
 11
33920.503227
 21
6324.342326
 31
0.0
  0
LINE
  5
2C32
100
AcDbEntity
  8
SUPORT2
  6
DASHED
 62
     5
100
AcDbLine
 10
33939.193599
 20
6297.983836
 30
0.0
 11
33937.661806
 21
6304.777481
 31
0.0
  0
LINE
  5
2C33
100
AcDbEntity
  8
SUPORT2
 62
     5
100
AcDbLine
 10
36833.062487
 20
8787.473394
 30
0.0
 11
36828.63424
 21
8783.408836
 31
0.0
  0
LINE
  5
2C34
100
AcDbEntity
  8
SUPORT2
 62
     5
100
AcDbLine
 10
36765.586137
 20
8861.262974
 30
0.0
 11
36761.15789
 21
8857.198417
 31
0.0
  0
LINE
  5
2C35
100
AcDbEntity
  8
SUPORT2
 62
     5
100
AcDbLine
 10
36761.15789
 20
8857.198417
 30
0.0
 11
36828.63424
 21
8783.408836
 31
0.0
  0
LINE
  5
2C36
100
AcDbEntity
  8
SUPORT2
 62
     5
100
AcDbLine
 10
38057.645344
 20
7066.731011
 30
0.0
 11
38042.416808
 21
7062.955871
 31
0.0
  0
LINE
  5
2C37
100
AcDbEntity
  8
SUPORT2
 62
     5
100
AcDbLine
 10
38057.645344
 20
7066.731011
 30
0.0
 11
38012.646975
 21
7251.359711
 31
0.0
  0
ARC
  5
2C38
100
AcDbEntity
  8
SUPORT2
 62
     5
100
AcDbCircle
 10
38315.774679
 20
7227.092749
 30
0.0
 40
272.5
100
AcDbArc
 50
307.668855
 51
107.515865
  0
LINE
  5
2C39
100
AcDbEntity
  8
SUPORT2
 62
     5
100
AcDbLine
 10
38410.924052
 20
7355.59507
 30
0.0
 11
38205.903084
 21
7507.501794
 31
0.0
  0
ARC
  5
2C3A
100
AcDbEntity
  8
SUPORT2
 62
     5
100
AcDbCircle
 10
38139.987611
 20
7419.164993
 30
0.0
 40
110.0
100
AcDbArc
 50
53.472765
 51
174.247865
  0
ARC
  5
2C3B
100
AcDbEntity
  8
SUPORT2
 62
     5
100
AcDbCircle
 10
37889.255906
 20
7485.93783
 30
0.0
 40
100.0
100
AcDbArc
 50
21.153565
 51
42.481065
  0
LINE
  5
2C3C
100
AcDbEntity
  8
SUPORT2
 62
     5
100
AcDbLine
 10
37982.367301
 20
7522.113901
 30
0.0
 11
38027.996664
 21
7404.049845
 31
0.0
  0
LINE
  5
2C3D
100
AcDbEntity
  8
SUPORT2
 62
     5
100
AcDbLine
 10
38012.646975
 20
7251.359711
 30
0.0
 11
37997.418439
 21
7247.584571
 31
0.0
  0
LINE
  5
2C3E
100
AcDbEntity
  8
SUPORT2
  6
DASHED
 62
     5
100
AcDbLine
 10
38020.414153
 20
7155.193028
 30
0.0
 11
38016.763671
 21
7161.70179
 31
0.0
  0
LINE
  5
2C3F
100
AcDbEntity
  8
SUPORT2
 62
     5
100
AcDbLine
 10
38012.646975
 20
7251.359711
 30
0.0
 11
38030.423974
 21
7430.156323
 31
0.0
  0
LINE
  5
2C40
100
AcDbEntity
  8
SUPORT2
 62
     5
100
AcDbLine
 10
38042.416808
 20
7062.955871
 30
0.0
 11
37997.418439
 21
7247.584571
 31
0.0
  0
LINE
  5
2C41
100
AcDbEntity
  8
SUPORT2
 62
     5
100
AcDbLine
 10
38051.917429
 20
7585.315085
 30
0.0
 11
38188.442492
 21
7517.869423
 31
0.0
  0
ARC
  5
2C42
100
AcDbEntity
  8
SUPORT2
 62
     5
100
AcDbCircle
 10
38095.876547
 20
7675.051342
 30
0.0
 40
100.0
100
AcDbArc
 50
222.480865
 51
243.808865
  0
ARC
  5
2C43
100
AcDbEntity
  8
SUPORT2
 62
     5
100
AcDbCircle
 10
38315.774679
 20
7227.092749
 30
0.0
 40
160.0
100
AcDbArc
 50
301.73813
 51
53.472665
  0
ARC
  5
2C44
100
AcDbEntity
  8
SUPORT2
 62
     5
100
AcDbCircle
 10
38315.774679
 20
7227.092749
 30
0.0
 40
160.0
100
AcDbArc
 50
270.075865
 51
301.73813
  0
ARC
  5
2C45
100
AcDbEntity
  8
SUPORT2
 62
     5
100
AcDbCircle
 10
38315.774679
 20
7227.092749
 30
0.0
 40
272.5
100
AcDbArc
 50
216.031865
 51
307.668855
  0
LINE
  5
2C46
100
AcDbEntity
  8
SUPORT2
 62
     5
100
AcDbLine
 10
38057.645344
 20
7066.731011
 30
0.0
 11
38316.046708
 21
7067.039739
 31
0.0
  0
LINE
  5
2C47
100
AcDbEntity
  8
SUPORT2
 62
     5
100
AcDbLine
 10
31932.605201
 20
14138.879734
 30
0.0
 11
34895.663245
 21
10903.276594
 31
0.0
  0
LINE
  5
2C48
100
AcDbEntity
  8
SUPORT2
 62
     5
100
AcDbLine
 10
31991.641228
 20
14192.940695
 30
0.0
 11
34954.593967
 21
10957.243158
 31
0.0
  0
LINE
  5
2C49
100
AcDbEntity
  8
SUPORT2
 62
     5
100
AcDbLine
 10
35195.306934
 20
10565.833592
 30
0.0
 11
35058.082913
 21
10633.317428
 31
0.0
  0
ARC
  5
2C4A
100
AcDbEntity
  8
SUPORT2
 62
     5
100
AcDbCircle
 10
35106.637645
 20
10732.016405
 30
0.0
 40
110.0
100
AcDbArc
 50
21.152365
 51
243.809865
  0
CIRCLE
  5
2C4B
100
AcDbEntity
  8
SUPORT2
 62
     5
100
AcDbCircle
 10
35106.637645
 20
10732.016405
 30
0.0
 40
97.9999
  0
LINE
  5
2C4C
100
AcDbEntity
  8
SUPORT2
  6
DASHED
 62
     5
100
AcDbLine
 10
35178.952961
 20
10798.171186
 30
0.0
 11
35145.214786
 21
10835.065977
 31
0.0
  0
LINE
  5
2C4D
100
AcDbEntity
  8
SUPORT2
 62
     5
100
AcDbLine
 10
35154.07128
 20
10843.195091
 30
0.0
 11
35187.809455
 21
10806.300301
 31
0.0
  0
ARC
  5
2C4E
100
AcDbEntity
  8
SUPORT2
 62
     5
100
AcDbCircle
 10
35072.89947
 20
10768.911195
 30
0.0
 40
110.0
100
AcDbArc
 50
42.481065
 51
63.808165
  0
LINE
  5
2C4F
100
AcDbEntity
  8
SUPORT2
  6
CENTER
 62
     5
100
AcDbLine
 10
35194.343795
 20
10812.252813
 30
0.0
 11
35019.979087
 21
10652.624123
 31
0.0
  0
ARC
  5
2C50
100
AcDbEntity
  8
SUPORT2
 62
     5
100
AcDbCircle
 10
35028.389001
 20
11024.819359
 30
0.0
 40
100.0
100
AcDbArc
 50
222.480865
 51
243.807865
  0
ARC
  5
2C51
100
AcDbEntity
  8
SUPORT2
 62
     5
100
AcDbCircle
 10
34821.868211
 20
10835.700393
 30
0.0
 40
100.0
100
AcDbArc
 50
21.154065
 51
42.481065
  0
ARC
  5
2C52
100
AcDbEntity
  8
SUPORT2
 62
     5
100
AcDbCircle
 10
35072.89947
 20
10768.911195
 30
0.0
 40
110.0
100
AcDbArc
 50
201.153865
 51
222.480865
  0
LINE
  5
2C53
100
AcDbEntity
  8
SUPORT2
 62
     5
100
AcDbLine
 10
34915.173855
 20
10871.765706
 30
0.0
 11
34970.278323
 21
10729.148394
 31
0.0
  0
LINE
  5
2C54
100
AcDbEntity
  8
SUPORT2
 62
     5
100
AcDbLine
 10
34984.230181
 20
10935.094008
 30
0.0
 11
35121.454202
 21
10867.610172
 31
0.0
  0
LINE
  5
2C55
100
AcDbEntity
  8
SUPORT2
 62
     5
100
AcDbLine
 10
34991.82751
 20
10694.621846
 30
0.0
 11
35025.565685
 21
10657.727056
 31
0.0
  0
LINE
  5
2C56
100
AcDbEntity
  8
SUPORT2
 62
     5
100
AcDbLine
 10
35264.457658
 20
10629.05659
 30
0.0
 11
35209.253338
 21
10771.679355
 31
0.0
  0
ARC
  5
2C57
100
AcDbEntity
  8
SUPORT2
 62
     5
100
AcDbCircle
 10
35357.66345
 20
10665.127356
 30
0.0
 40
100.0
100
AcDbArc
 50
201.152865
 51
222.480865
  0
ARC
  5
2C58
100
AcDbEntity
  8
SUPORT2
 62
     5
100
AcDbCircle
 10
35151.247965
 20
10476.102788
 30
0.0
 40
100.0
100
AcDbArc
 50
42.481065
 51
63.809865
  0
LINE
  5
2C59
100
AcDbEntity
  8
SUPORT2
 62
     5
100
AcDbLine
 10
31487.092716
 20
14292.0033
 30
0.0
 11
31377.562119
 21
13918.520692
 31
0.0
  0
CIRCLE
  5
2C5A
100
AcDbEntity
  8
SUPORT2
  6
CENTER
 62
     5
100
AcDbCircle
 10
31381.747912
 20
13648.59074
 30
0.0
 40
250.0
  0
CIRCLE
  5
2C5B
100
AcDbEntity
  8
SUPORT2
  6
CENTER
 62
     5
100
AcDbCircle
 10
31226.937462
 20
13120.847882
 30
0.0
 40
250.0
  0
CIRCLE
  5
2C5C
100
AcDbEntity
  8
SUPORT2
  6
CENTER
 62
     5
100
AcDbCircle
 10
31226.937462
 20
13120.847882
 30
0.0
 40
250.0
  0
LINE
  5
2C5D
100
AcDbEntity
  8
SUPORT2
 62
     5
100
AcDbLine
 10
31697.19534
 20
14583.379101
 30
0.0
 11
31907.594359
 21
14391.069878
 31
0.0
  0
ARC
  5
2C5E
100
AcDbEntity
  8
SUPORT2
 62
     5
100
AcDbCircle
 10
31636.484576
 20
14516.991127
 30
0.0
 40
89.9999
100
AcDbArc
 50
47.573265
 51
162.001865
  0
LINE
  5
2C5F
100
AcDbEntity
  8
SUPORT2
 62
     5
100
AcDbLine
 10
31784.089933
 20
14221.501857
 30
0.0
 11
31465.709741
 21
14314.903483
 31
0.0
  0
LINE
  5
2C60
100
AcDbEntity
  8
SUPORT2
 62
     5
100
AcDbLine
 10
31666.587666
 20
14239.336298
 30
0.0
 11
31461.269817
 21
14299.622872
 31
0.0
  0
LINE
  5
2C61
100
AcDbEntity
  8
SUPORT2
 62
     5
100
AcDbLine
 10
31529.68435
 20
14479.559699
 30
0.0
 11
31550.873782
 21
14544.801234
 31
0.0
  0
LINE
  5
2C62
100
AcDbEntity
  8
SUPORT2
 62
     5
100
AcDbLine
 10
31465.709741
 20
14314.903483
 30
0.0
 11
31461.269817
 21
14299.622872
 31
0.0
  0
LINE
  5
2C63
100
AcDbEntity
  8
SUPORT2
 62
     5
100
AcDbLine
 10
31475.369729
 20
14312.072469
 30
0.0
 11
31482.64612
 21
14337.112919
 31
0.0
  0
LINE
  5
2C64
100
AcDbEntity
  8
SUPORT2
  6
DASHED
 62
     5
100
AcDbLine
 10
31475.369729
 20
14312.072469
 30
0.0
 11
31529.68435
 21
14479.559699
 31
0.0
  0
CIRCLE
  5
2C65
100
AcDbEntity
  8
SUPORT2
 62
     5
100
AcDbCircle
 10
31636.484576
 20
14516.991127
 30
0.0
 40
35.0
  0
ARC
  5
2C66
100
AcDbEntity
  8
SUPORT2
 62
     5
100
AcDbCircle
 10
32065.436262
 20
14260.516896
 30
0.0
 40
100.0
100
AcDbArc
 50
201.152865
 51
222.480865
  0
ARC
  5
2C67
100
AcDbEntity
  8
SUPORT2
 62
     5
100
AcDbCircle
 10
31858.915471
 20
14071.397931
 30
0.0
 40
100.0
100
AcDbArc
 50
42.481065
 51
63.809465
  0
LINE
  5
2C68
100
AcDbEntity
  8
SUPORT2
 62
     5
100
AcDbLine
 10
31671.132895
 20
14254.711307
 30
0.0
 11
31666.587666
 21
14239.336298
 31
0.0
  0
LINE
  5
2C69
100
AcDbEntity
  8
SUPORT2
 62
     5
100
AcDbLine
 10
31972.125164
 20
14224.351732
 30
0.0
 11
31907.594359
 21
14391.069878
 31
0.0
  0
LINE
  5
2C6A
100
AcDbEntity
  8
SUPORT2
 62
     5
100
AcDbLine
 10
31903.074292
 20
14161.123282
 30
0.0
 11
31765.850271
 21
14228.607118
 31
0.0
  0
LINE
  5
2C6B
100
AcDbEntity
  8
LJ
 62
     5
100
AcDbLine
 10
27305.935486
 20
4660.66036
 30
0.0
 11
22651.36084
 21
5423.997011
 31
0.0
  0
LINE
  5
2C6C
100
AcDbEntity
  8
LJ
 62
     5
100
AcDbLine
 10
27474.040874
 20
4736.058903
 30
0.0
 11
22679.539346
 21
5522.28274
 31
0.0
  0
LINE
  5
2C6D
100
AcDbEntity
  8
LJ
 62
     5
100
AcDbLine
 10
22567.765615
 20
6229.276579
 30
0.0
 11
27873.835675
 21
4709.389556
 31
0.0
  0
LINE
  5
2C6E
100
AcDbEntity
  8
LJ
 62
     5
100
AcDbLine
 10
23036.938873
 20
6769.832253
 30
0.0
 11
27520.545956
 21
4898.372549
 31
0.0
  0
LINE
  5
2C6F
100
AcDbEntity
  8
LJ
 62
     5
100
AcDbLine
 10
23065.062263
 20
6868.188741
 30
0.0
 11
27417.836874
 21
5051.362299
 31
0.0
  0
LINE
  5
2C70
100
AcDbEntity
  8
LJ
 62
     5
100
AcDbLine
 10
23054.256233
 20
6899.414966
 30
0.0
 11
23171.933573
 21
6947.750189
 31
0.0
  0
LINE
  5
2C71
100
AcDbEntity
  8
LJ
 62
     5
100
AcDbLine
 10
23277.351229
 20
6778.861563
 30
0.0
 11
23076.512414
 21
6862.658165
 31
0.0
  0
POINT
  5
2C72
100
AcDbEntity
  8
LJ
 62
     5
100
AcDbPoint
 10
22736.136266
 20
6181.047972
 30
0.0
  0
LINE
  5
2C73
100
AcDbEntity
  8
LJ
 62
     5
100
AcDbLine
 10
22964.318998
 20
6977.716138
 30
0.0
 11
22508.631111
 21
5386.745469
 31
0.0
  0
LINE
  5
2C74
100
AcDbEntity
  8
LJ
 62
     5
100
AcDbLine
 10
23064.56728
 20
6758.317934
 30
0.0
 11
22709.172017
 21
5517.418286
 31
0.0
  0
LINE
  5
2C75
100
AcDbEntity
  8
LJ
 62
     5
100
AcDbLine
 10
22955.440949
 20
6946.699526
 30
0.0
 11
22516.72275
 21
5415.146444
 31
0.0
  0
LINE
  5
2C76
100
AcDbEntity
  8
LJ
 62
     5
100
AcDbLine
 10
22640.343781
 20
5412.727627
 30
0.0
 11
22647.54633
 21
5410.692119
 31
0.0
  0
LINE
  5
2C77
100
AcDbEntity
  8
LJ
 62
     5
100
AcDbLine
 10
22652.65117
 20
5544.416876
 30
0.0
 11
22683.357815
 21
5535.601436
 31
0.0
  0
LINE
  5
2C78
100
AcDbEntity
  8
LJ
 62
     5
100
AcDbLine
 10
22616.839685
 20
5419.507559
 30
0.0
 11
22647.54633
 21
5410.692119
 31
0.0
  0
LINE
  5
2C79
100
AcDbEntity
  8
LJ
 62
     5
100
AcDbLine
 10
22616.839685
 20
5419.507559
 30
0.0
 11
22530.700616
 21
5434.196359
 31
0.0
  0
LINE
  5
2C7A
100
AcDbEntity
  8
LJ
 62
     5
100
AcDbLine
 10
22652.65117
 20
5544.416876
 30
0.0
 11
22571.806251
 21
5577.489962
 31
0.0
  0
LINE
  5
2C7B
100
AcDbEntity
  8
LJ
 62
     5
100
AcDbLine
 10
22683.357815
 20
5535.601436
 30
0.0
 11
22647.54633
 21
5410.692119
 31
0.0
  0
LINE
  5
2C7C
100
AcDbEntity
  8
LJ
 62
     5
100
AcDbLine
 10
22434.1863
 20
5471.789399
 30
0.0
 11
22403.380404
 21
5480.592625
 31
0.0
  0
LINE
  5
2C7D
100
AcDbEntity
  8
LJ
 62
     5
100
AcDbLine
 10
22469.985571
 20
5596.797968
 30
0.0
 11
22434.1863
 21
5471.789399
 31
0.0
  0
LINE
  5
2C7E
100
AcDbEntity
  8
LJ
 62
     5
100
AcDbLine
 10
22439.179675
 20
5605.601193
 30
0.0
 11
22403.380404
 21
5480.592625
 31
0.0
  0
LINE
  5
2C7F
100
AcDbEntity
  8
LJ
 62
     5
100
AcDbLine
 10
22469.985571
 20
5596.797968
 30
0.0
 11
22439.179675
 21
5605.601193
 31
0.0
  0
ARC
  5
2C80
100
AcDbEntity
  8
LJ
 62
     5
100
AcDbCircle
 10
22543.369109
 20
5508.097031
 30
0.0
 40
75.0
100
AcDbArc
 50
244.417727
 51
83.613727
  0
LINE
  5
2C81
100
AcDbEntity
  8
LJ
 62
     5
100
AcDbLine
 10
22468.562398
 20
5591.988126
 30
0.0
 11
22551.722479
 21
5582.675722
 31
0.0
  0
LINE
  5
2C82
100
AcDbEntity
  8
LJ
 62
     5
100
AcDbLine
 10
22435.510222
 20
5476.587027
 30
0.0
 11
22510.990959
 21
5440.435702
 31
0.0
  0
ARC
  5
2C83
100
AcDbEntity
  8
LJ
 62
     5
100
AcDbCircle
 10
22543.369109
 20
5508.097031
 30
0.0
 40
74.9999
100
AcDbArc
 50
67.736827
 51
260.294727
  0
LINE
  5
2C84
100
AcDbEntity
  8
LJ
 62
     5
100
AcDbLine
 10
22444.046627
 20
5536.578858
 30
0.0
 11
22665.452072
 21
5473.146778
 31
0.0
  0
LINE
  5
2C85
100
AcDbEntity
  8
LJ
 62
     5
100
AcDbLine
 10
22826.968788
 20
6155.080587
 30
0.0
 11
22540.039722
 21
6237.268383
 31
0.0
  0
LINE
  5
2C86
100
AcDbEntity
  8
LJ
 62
     5
100
AcDbLine
 10
23050.455555
 20
6890.181611
 30
0.0
 11
23068.302329
 21
6882.705471
 31
0.0
  0
LINE
  5
2C87
100
AcDbEntity
  8
LJ
 62
     5
100
AcDbLine
 10
23068.302329
 20
6882.705471
 30
0.0
 11
23076.512414
 21
6862.658165
 31
0.0
  0
LINE
  5
2C88
100
AcDbEntity
  8
LJ
 62
     5
100
AcDbLine
 10
23054.256233
 20
6899.414966
 30
0.0
 11
23050.455555
 21
6890.181611
 31
0.0
  0
LINE
  5
2C89
100
AcDbEntity
  8
LJ
 62
     5
100
AcDbLine
 10
23038.151474
 20
6890.279501
 30
0.0
 11
23068.858118
 21
6881.464062
 31
0.0
  0
LINE
  5
2C8A
100
AcDbEntity
  8
LJ
 62
     5
100
AcDbLine
 10
23068.858118
 20
6881.464062
 30
0.0
 11
23033.145884
 21
6756.566959
 31
0.0
  0
LINE
  5
2C8B
100
AcDbEntity
  8
LJ
 62
     5
100
AcDbLine
 10
23038.151474
 20
6890.279501
 30
0.0
 11
22957.306555
 21
6923.352588
 31
0.0
  0
LINE
  5
2C8C
100
AcDbEntity
  8
LJ
 62
     5
100
AcDbLine
 10
23002.339988
 20
6765.370184
 30
0.0
 11
23033.145884
 21
6756.566959
 31
0.0
  0
LINE
  5
2C8D
100
AcDbEntity
  8
LJ
 62
     5
100
AcDbLine
 10
23002.339988
 20
6765.370184
 30
0.0
 11
22916.300171
 21
6780.071198
 31
0.0
  0
LINE
  5
2C8E
100
AcDbEntity
  8
LJ
 62
     5
100
AcDbLine
 10
22819.686603
 20
6817.652025
 30
0.0
 11
22788.880707
 21
6826.45525
 31
0.0
  0
LINE
  5
2C8F
100
AcDbEntity
  8
LJ
 62
     5
100
AcDbLine
 10
22855.485874
 20
6942.660593
 30
0.0
 11
22824.679978
 21
6951.463819
 31
0.0
  0
LINE
  5
2C90
100
AcDbEntity
  8
LJ
 62
     5
100
AcDbLine
 10
22824.679978
 20
6951.463819
 30
0.0
 11
22788.880707
 21
6826.45525
 31
0.0
  0
LINE
  5
2C91
100
AcDbEntity
  8
LJ
 62
     5
100
AcDbLine
 10
22855.485874
 20
6942.660593
 30
0.0
 11
22819.686603
 21
6817.652025
 31
0.0
  0
ARC
  5
2C92
100
AcDbEntity
  8
LJ
 62
     5
100
AcDbCircle
 10
22928.869413
 20
6853.959656
 30
0.0
 40
75.0
100
AcDbArc
 50
244.417727
 51
83.613727
  0
LINE
  5
2C93
100
AcDbEntity
  8
LJ
 62
     5
100
AcDbLine
 10
22821.109776
 20
6822.461867
 30
0.0
 11
22896.491262
 21
6786.298327
 31
0.0
  0
LINE
  5
2C94
100
AcDbEntity
  8
LJ
 62
     5
100
AcDbLine
 10
22854.062701
 20
6937.850751
 30
0.0
 11
22937.222783
 21
6928.538347
 31
0.0
  0
ARC
  5
2C95
100
AcDbEntity
  8
LJ
 62
     5
100
AcDbCircle
 10
22928.869413
 20
6853.959656
 30
0.0
 40
74.9999
100
AcDbArc
 50
67.736827
 51
260.294727
  0
LINE
  5
2C96
100
AcDbEntity
  8
LJ
 62
     5
100
AcDbLine
 10
23495.437527
 20
6633.510723
 30
0.0
 11
23140.729423
 21
5395.214498
 31
0.0
  0
LINE
  5
2C97
100
AcDbEntity
  8
LJ
 62
     5
100
AcDbLine
 10
23304.838465
 20
5368.357986
 30
0.0
 11
24105.191625
 21
6378.981432
 31
0.0
  0
LINE
  5
2C98
100
AcDbEntity
  8
LJ
 62
     5
100
AcDbLine
 10
23648.907876
 20
6569.476419
 30
0.0
 11
23792.775646
 21
5288.255753
 31
0.0
  0
LINE
  5
2C99
100
AcDbEntity
  8
LJ
 62
     5
100
AcDbLine
 10
23117.562488
 20
6736.22545
 30
0.0
 11
22765.825948
 21
5508.168844
 31
0.0
  0
LINE
  5
2C9A
100
AcDbEntity
  8
LJ
 62
     5
100
AcDbLine
 10
23749.289186
 20
5346.883203
 30
0.0
 11
23749.854203
 21
5350.479139
 31
0.0
  0
LINE
  5
2C9B
100
AcDbEntity
  8
LJ
 62
     5
100
AcDbLine
 10
23670.316024
 20
5359.834248
 30
0.0
 11
23670.980291
 21
5363.442399
 31
0.0
  0
LINE
  5
2C9C
100
AcDbEntity
  8
LJ
 62
     5
100
AcDbLine
 10
23749.854203
 20
5350.479139
 30
0.0
 11
23670.980291
 21
5363.442399
 31
0.0
  0
LINE
  5
2C9D
100
AcDbEntity
  8
LJ
 62
     5
100
AcDbLine
 10
23481.340152
 20
6584.320541
 30
0.0
 11
23442.219631
 21
6447.820267
 31
0.0
  0
ARC
  5
2C9E
100
AcDbEntity
  8
LJ
 62
     5
100
AcDbCircle
 10
23486.50624
 20
6730.647133
 30
0.0
 40
39.9999
100
AcDbArc
 50
219.688727
 51
274.998727
  0
ARC
  5
2C9F
100
AcDbEntity
  8
LJ
 62
     5
100
AcDbCircle
 10
23304.365198
 20
6843.444653
 30
0.0
 40
60.0
100
AcDbArc
 50
155.984727
 51
247.343727
  0
LINE
  5
2CA0
100
AcDbEntity
  8
LJ
 62
     5
100
AcDbLine
 10
23281.251159
 20
6788.107132
 30
0.0
 11
23277.351229
 21
6778.861563
 31
0.0
  0
ARC
  5
2CA1
100
AcDbEntity
  8
LJ
 62
     5
100
AcDbCircle
 10
23194.77432
 20
6892.325011
 30
0.0
 40
60.0
100
AcDbArc
 50
335.984727
 51
112.934727
  0
LINE
  5
2CA2
100
AcDbEntity
  8
LJ
 62
     5
100
AcDbLine
 10
27511.401925
 20
4876.573009
 30
0.0
 11
27558.994595
 21
4837.795724
 31
0.0
  0
ARC
  5
2CA3
100
AcDbEntity
  8
LJ
 62
     5
100
AcDbCircle
 10
27540.89421
 20
5174.002202
 30
0.0
 40
140.0
100
AcDbArc
 50
254.015727
 51
323.028727
  0
LINE
  5
2CA4
100
AcDbEntity
  8
LJ
 62
     5
100
AcDbLine
 10
27477.862631
 20
4759.399139
 30
0.0
 11
27538.667015
 21
4767.184185
 31
0.0
  0
LINE
  5
2CA5
100
AcDbEntity
  8
LJ
 62
     5
100
AcDbLine
 10
27304.05261
 20
4648.942647
 30
0.0
 11
27483.681139
 21
4597.497611
 31
0.0
  0
POINT
  5
2CA6
100
AcDbEntity
  8
LJ
 62
     5
100
AcDbPoint
 10
27735.141197
 20
4749.146841
 30
0.0
  0
ARC
  5
2CA7
100
AcDbEntity
  8
LJ
 62
     5
100
AcDbCircle
 10
26052.781995
 20
5231.068792
 30
0.0
 40
99.9999
100
AcDbArc
 50
309.750727
 51
18.280727
  0
LINE
  5
2CA8
100
AcDbEntity
  8
LJ
 62
     5
100
AcDbLine
 10
25592.551075
 20
5758.202191
 30
0.0
 11
25896.767591
 21
4943.257977
 31
0.0
  0
LINE
  5
2CA9
100
AcDbEntity
  8
LJ
 62
     5
100
AcDbLine
 10
25383.237424
 20
5027.46497
 30
0.0
 11
26072.729774
 21
5557.751231
 31
0.0
  0
LINE
  5
2CAA
100
AcDbEntity
  8
LJ
 62
     5
100
AcDbLine
 10
25935.606123
 20
5003.452481
 30
0.0
 11
25931.435855
 21
4989.03517
 31
0.0
  0
LINE
  5
2CAB
100
AcDbEntity
  8
LJ
 62
     5
100
AcDbLine
 10
25935.606123
 20
5003.452481
 30
0.0
 11
26116.662018
 21
5154.094883
 31
0.0
  0
LINE
  5
2CAC
100
AcDbEntity
  8
LJ
 62
     5
100
AcDbLine
 10
27477.862631
 20
4759.399139
 30
0.0
 11
27474.040874
 21
4736.058903
 31
0.0
  0
LINE
  5
2CAD
100
AcDbEntity
  8
LJ
 62
     5
100
AcDbLine
 10
27304.05261
 20
4648.942647
 30
0.0
 11
27306.399713
 21
4663.437857
 31
0.0
  0
LINE
  5
2CAE
100
AcDbEntity
  8
LJ
 62
     5
100
AcDbLine
 10
26073.796136
 20
5486.044587
 30
0.0
 11
26077.95419
 21
5500.561149
 31
0.0
  0
LINE
  5
2CAF
100
AcDbEntity
  8
LJ
 62
     5
100
AcDbLine
 10
26073.796136
 20
5486.044587
 30
0.0
 11
26147.765723
 21
5262.404899
 31
0.0
  0
LINE
  5
2CB0
100
AcDbEntity
  8
LJ
 62
     5
100
AcDbLine
 10
27511.401925
 20
4876.573009
 30
0.0
 11
27520.545956
 21
4898.372549
 31
0.0
  0
LINE
  5
2CB1
100
AcDbEntity
  8
LJ
 62
     5
100
AcDbLine
 10
27422.451018
 20
5062.298979
 30
0.0
 11
27417.836874
 21
5051.362299
 31
0.0
  0
LINE
  5
2CB2
100
AcDbEntity
  8
LJ
 62
     5
100
AcDbLine
 10
27422.451018
 20
5062.298979
 30
0.0
 11
27502.33563
 21
5039.485416
 31
0.0
  0
ARC
  5
2CB3
100
AcDbEntity
  8
LJ
 62
     5
100
AcDbCircle
 10
27735.141197
 20
4749.146841
 30
0.0
 40
140.0
100
AcDbArc
 50
272.610727
 51
5.002727
  0
LINE
  5
2CB4
100
AcDbEntity
  8
LJ
 62
     5
100
AcDbLine
 10
27780.018557
 20
4906.002675
 30
0.0
 11
27688.266509
 21
4585.596929
 31
0.0
  0
ARC
  5
2CB5
100
AcDbEntity
  8
LJ
 62
     5
100
AcDbCircle
 10
27533.682092
 20
4806.872477
 30
0.0
 40
40.0
100
AcDbArc
 50
277.248727
 51
50.783127
  0
CIRCLE
  5
2CB6
100
AcDbEntity
  8
LJ
 62
     5
100
AcDbCircle
 10
27735.141197
 20
4749.146841
 30
0.0
 40
72.5
  0
LINE
  5
2CB7
100
AcDbEntity
  8
LJ
 62
     5
100
AcDbLine
 10
27483.681139
 20
4597.497611
 30
0.0
 11
27741.473054
 21
4609.272942
 31
0.0
  0
CIRCLE
  5
2CB8
100
AcDbEntity
  8
LJ
 62
     5
100
AcDbCircle
 10
27764.211307
 20
5104.860867
 30
0.0
 40
40.0
  0
CIRCLE
  5
2CB9
100
AcDbEntity
  8
LJ
 62
     5
100
AcDbCircle
 10
27764.211307
 20
5104.860867
 30
0.0
 40
40.5
  0
LINE
  5
2CBA
100
AcDbEntity
  8
LJ
 62
     5
100
AcDbLine
 10
27700.251495
 20
5153.009204
 30
0.0
 11
27652.712417
 21
5089.82965
 31
0.0
  0
ARC
  5
2CBB
100
AcDbEntity
  8
LJ
 62
     5
100
AcDbCircle
 10
27764.211307
 20
5104.860867
 30
0.0
 40
79.9999
100
AcDbArc
 50
5.002727
 51
142.958727
  0
LINE
  5
2CBC
100
AcDbEntity
  8
LJ
 62
     5
100
AcDbLine
 10
27843.855066
 20
5111.840961
 30
0.0
 11
27874.592213
 21
4761.371165
 31
0.0
  0
POINT
  5
2CBD
100
AcDbEntity
  8
SUPORTL
 62
     5
100
AcDbPoint
 10
27735.141197
 20
4749.146841
 30
0.0
  0
ARC
  5
2CBE
100
AcDbEntity
  8
SUPORTL
 62
     5
100
AcDbCircle
 10
29480.152776
 20
3000.620339
 30
0.0
 40
150.0
100
AcDbArc
 50
225.059336
 51
14.188736
  0
POINT
  5
2CBF
100
AcDbEntity
  8
0
  6
CONTINUOUS
 62
     5
100
AcDbPoint
 10
28393.701219
 20
2828.557838
 30
0.0
  0
LINE
  5
2CC0
100
AcDbEntity
  8
SUPORTL
 62
     5
100
AcDbLine
 10
29671.807622
 20
3031.032012
 30
0.0
 11
28256.872482
 21
2806.881798
 31
0.0
  0
LINE
  5
2CC1
100
AcDbEntity
  8
SUPORTL
 62
     5
100
AcDbLine
 10
29165.596084
 20
3102.697407
 30
0.0
 11
28511.31542
 21
2999.084898
 31
0.0
  0
LINE
  5
2CC2
100
AcDbEntity
  8
SUPORTL
 62
     5
100
AcDbLine
 10
29156.786964
 20
3111.395074
 30
0.0
 11
28508.078438
 21
3008.677705
 31
0.0
  0
LINE
  5
2CC3
100
AcDbEntity
  8
SUPORTL
 62
     5
100
AcDbLine
 10
28224.38504
 20
4063.01347
 30
0.0
 11
29030.855084
 21
3258.262378
 31
0.0
  0
LINE
  5
2CC4
100
AcDbEntity
  8
SUPORTL
 62
     5
100
AcDbLine
 10
28019.079922
 20
4642.300284
 30
0.0
 11
28795.581058
 21
4980.82108
 31
0.0
  0
LINE
  5
2CC5
100
AcDbEntity
  8
SUPORTL
 62
     5
100
AcDbLine
 10
27823.39034
 20
4837.582092
 30
0.0
 11
29218.060746
 21
3445.817868
 31
0.0
  0
LINE
  5
2CC6
100
AcDbEntity
  8
SUPORTL
 62
     5
100
AcDbLine
 10
28151.509593
 20
4043.856771
 30
0.0
 11
28426.648694
 21
3208.151576
 31
0.0
  0
LINE
  5
2CC7
100
AcDbEntity
  8
SUPORTL
 62
     5
100
AcDbLine
 10
27880.859832
 20
3954.650511
 30
0.0
 11
28155.94579
 21
3119.058357
 31
0.0
  0
LINE
  5
2CC8
100
AcDbEntity
  8
SUPORTL
 62
     5
100
AcDbLine
 10
28502.885401
 20
4159.498335
 30
0.0
 11
27866.611799
 21
3950.050123
 31
0.0
  0
LINE
  5
2CC9
100
AcDbEntity
  8
SUPORTL
 62
     5
100
AcDbLine
 10
27616.317011
 20
4710.072734
 30
0.0
 11
27866.611799
 21
3950.050123
 31
0.0
  0
ARC
  5
2CCA
100
AcDbEntity
  8
SUPORTL
 62
     5
100
AcDbCircle
 10
27735.124946
 20
4749.145673
 30
0.0
 40
125.0
100
AcDbArc
 50
45.059436
 51
198.222336
  0
LINE
  5
2CCB
100
AcDbEntity
  8
SUPORTL
 62
     5
100
AcDbLine
 10
28196.06716
 20
2949.145086
 30
0.0
 11
28310.139811
 21
2734.297767
 31
0.0
  0
LINE
  5
2CCC
100
AcDbEntity
  8
SUPORTL
 62
     5
100
AcDbLine
 10
28155.94579
 20
3119.058357
 30
0.0
 11
28141.664699
 21
3114.34597
 31
0.0
  0
LINE
  5
2CCD
100
AcDbEntity
  8
SUPORTL
 62
     5
100
AcDbLine
 10
28141.664699
 20
3114.34597
 30
0.0
 11
28196.06716
 21
2949.145086
 31
0.0
  0
ARC
  5
2CCE
100
AcDbEntity
  8
SUPORTL
 62
     5
100
AcDbCircle
 10
28484.825462
 20
2772.121349
 30
0.0
 40
10.0
100
AcDbArc
 50
200.901336
 51
279.001336
  0
ARC
  5
2CCF
100
AcDbEntity
  8
SUPORTL
 62
     5
100
AcDbCircle
 10
28329.691077
 20
2747.488598
 30
0.0
 40
10.0
100
AcDbArc
 50
279.001336
 51
0.718336
  0
LINE
  5
2CD0
100
AcDbEntity
  8
SUPORTL
 62
     5
100
AcDbLine
 10
28475.446502
 20
2768.491596
 30
0.0
 11
28445.045069
 21
2848.178501
 31
0.0
  0
LINE
  5
2CD1
100
AcDbEntity
  8
SUPORTL
 62
     5
100
AcDbLine
 10
28339.691961
 20
2747.637948
 30
0.0
 11
28338.690055
 21
2827.851888
 31
0.0
  0
LINE
  5
2CD2
100
AcDbEntity
  8
SUPORTL
 62
     5
100
AcDbLine
 10
28331.23608
 20
2737.636544
 30
0.0
 11
28310.23975
 21
2734.301259
 31
0.0
  0
LINE
  5
2CD3
100
AcDbEntity
  8
SUPORTL
 62
     5
100
AcDbLine
 10
28508.066369
 20
2765.629027
 30
0.0
 11
28486.370466
 21
2762.269296
 31
0.0
  0
LINE
  5
2CD4
100
AcDbEntity
  8
SUPORTL
 62
     5
100
AcDbLine
 10
28509.670477
 20
3008.933459
 30
0.0
 11
28511.31542
 21
2999.084898
 31
0.0
  0
ARC
  5
2CD5
100
AcDbEntity
  8
SUPORTL
 62
     5
100
AcDbCircle
 10
28393.698414
 20
2828.573374
 30
0.0
 40
55.0
100
AcDbArc
 50
20.901336
 51
180.718336
  0
LINE
  5
2CD6
100
AcDbEntity
  8
SUPORTL
 62
     5
100
AcDbLine
 10
28511.31542
 20
2999.084898
 30
0.0
 11
28508.066369
 21
2765.629027
 31
0.0
  0
LINE
  5
2CD7
100
AcDbEntity
  8
SUPORTL
 62
     5
100
AcDbLine
 10
28377.388159
 20
2931.666659
 30
0.0
 11
28409.237912
 21
2730.356145
 31
0.0
  0
LINE
  5
2CD8
100
AcDbEntity
  8
SUPORTL
 62
     5
100
AcDbLine
 10
28440.906973
 20
3212.856436
 30
0.0
 11
28426.648694
 21
3208.151576
 31
0.0
  0
LINE
  5
2CD9
100
AcDbEntity
  8
SUPORTL
 62
     5
100
AcDbLine
 10
28440.906973
 20
3212.856436
 30
0.0
 11
28511.31542
 21
2999.084898
 31
0.0
  0
LINE
  5
2CDA
100
AcDbEntity
  8
SUPORTL
 62
     5
100
AcDbLine
 10
28678.719251
 20
3984.035495
 30
0.0
 11
28885.010182
 21
4907.099225
 31
0.0
  0
ARC
  5
2CDB
100
AcDbEntity
  8
SUPORTL
 62
     5
100
AcDbCircle
 10
28821.575816
 20
4921.292578
 30
0.0
 40
65.0
100
AcDbArc
 50
347.408336
 51
113.548336
  0
LINE
  5
2CDC
100
AcDbEntity
  8
SUPORTL
 62
     5
100
AcDbLine
 10
28805.666655
 20
5021.49811
 30
0.0
 11
28833.389414
 21
4846.659617
 31
0.0
  0
CIRCLE
  5
2CDD
100
AcDbEntity
  8
SUPORTL
 62
     5
100
AcDbCircle
 10
28821.575816
 20
4921.292578
 30
0.0
 40
30.25
  0
LINE
  5
2CDE
100
AcDbEntity
  8
SUPORTL
 62
     5
100
AcDbLine
 10
28912.828745
 20
4935.688166
 30
0.0
 11
28748.734772
 21
4909.741719
 31
0.0
  0
CIRCLE
  5
2CDF
100
AcDbEntity
  8
SUPORTL
 62
     5
100
AcDbCircle
 10
28821.575816
 20
4921.292578
 30
0.0
 40
30.0
  0
ARC
  5
2CE0
100
AcDbEntity
  8
SUPORTL
 62
     5
100
AcDbCircle
 10
29295.241987
 20
3501.668371
 30
0.0
 40
55.0
100
AcDbArc
 50
251.553336
 51
315.059336
  0
LINE
  5
2CE1
100
AcDbEntity
  8
SUPORTL
 62
     5
100
AcDbLine
 10
29235.736294
 20
3463.567025
 30
0.0
 11
29277.852222
 21
3449.529268
 31
0.0
  0
LINE
  5
2CE2
100
AcDbEntity
  8
SUPORTL
 62
     5
100
AcDbLine
 10
29235.736294
 20
3463.567025
 30
0.0
 11
29218.060746
 21
3445.817868
 31
0.0
  0
LINE
  5
2CE3
100
AcDbEntity
  8
SUPORTL
 62
     5
100
AcDbLine
 10
29020.246678
 20
3247.609795
 30
0.0
 11
29374.195724
 21
2894.455264
 31
0.0
  0
LINE
  5
2CE4
100
AcDbEntity
  8
SUPORTL
 62
     5
100
AcDbLine
 10
29030.855084
 20
3258.262378
 30
0.0
 11
29020.246678
 21
3247.609795
 31
0.0
  0
LINE
  5
2CE5
100
AcDbEntity
  8
SUPORTL
 62
     5
100
AcDbLine
 10
29435.405297
 20
3602.524786
 30
0.0
 11
29463.124563
 21
3427.786232
 31
0.0
  0
LINE
  5
2CE6
100
AcDbEntity
  8
SUPORTL
 62
     5
100
AcDbLine
 10
29504.676537
 20
3515.791025
 30
0.0
 11
29625.556299
 21
3037.420684
 31
0.0
  0
CIRCLE
  5
2CE7
100
AcDbEntity
  8
SUPORTL
 62
     5
100
AcDbCircle
 10
29451.314458
 20
3502.319254
 30
0.0
 40
25.0
  0
CIRCLE
  5
2CE8
100
AcDbEntity
  8
SUPORTL
 62
     5
100
AcDbCircle
 10
29451.314458
 20
3502.319254
 30
0.0
 40
27.5
  0
ARC
  5
2CE9
100
AcDbEntity
  8
SUPORTL
 62
     5
100
AcDbCircle
 10
29451.314458
 20
3502.319254
 30
0.0
 40
55.0
100
AcDbArc
 50
14.188736
 51
135.059336
  0
LINE
  5
2CEA
100
AcDbEntity
  8
SUPORTL
 62
     5
100
AcDbLine
 10
29542.567387
 20
3516.714843
 30
0.0
 11
29378.473414
 21
3490.768396
 31
0.0
  0
LINE
  5
2CEB
100
AcDbEntity
  8
SUPORTL
 62
     5
100
AcDbLine
 10
29412.333498
 20
3541.181636
 30
0.0
 11
29334.222948
 21
3462.805989
 31
0.0
  0
CIRCLE
  5
2CEC
100
AcDbEntity
  8
SUPORTL
 62
     5
100
AcDbCircle
 10
29480.152776
 20
3000.620339
 30
0.0
 40
45.0
  0
LINE
  5
2CED
100
AcDbEntity
  8
SUPORTL
 62
     5
100
AcDbLine
 10
29454.206329
 20
3164.714312
 30
0.0
 11
29502.88483
 21
2856.926555
 31
0.0
  0
LINE
  5
2CEE
100
AcDbEntity
  8
LJ
 62
     5
100
AcDbLine
 10
29908.932318
 20
27293.691123
 30
0.0
 11
30283.829275
 21
27186.178184
 31
0.0
  0
LINE
  5
2CEF
100
AcDbEntity
  8
LJ
100
AcDbLine
 10
29547.696984
 20
26033.675646
 30
0.0
 11
29922.59394
 21
25926.162706
 31
0.0
  0
POINT
  5
2CF0
100
AcDbEntity
  8
LJ
 62
     5
100
AcDbPoint
 10
29526.030382
 20
26721.641759
 30
0.0
  0
LINE
  5
2CF1
100
AcDbEntity
  8
LJ
 62
     5
100
AcDbLine
 10
30218.701575
 20
25794.870517
 30
0.0
 11
29948.030603
 21
27328.918585
 31
0.0
  0
LINE
  5
2CF2
100
AcDbEntity
  8
LJ
 62
     5
100
AcDbLine
 10
30604.571297
 20
27140.627274
 30
0.0
 11
29562.173068
 21
25983.062574
 31
0.0
  0
LINE
  5
2CF3
100
AcDbEntity
  8
LJ
 62
     5
100
AcDbLine
 10
29394.831742
 20
26759.254413
 30
0.0
 11
30194.010474
 21
26530.142031
 31
0.0
  0
LINE
  5
2CF4
100
AcDbEntity
  8
LJ
 62
     5
100
AcDbLine
 10
29855.081985
 20
27408.343519
 30
0.0
 11
38262.271193
 21
24997.640682
 31
0.0
  0
LINE
  5
2CF5
100
AcDbEntity
  8
LJ
 62
     5
100
AcDbLine
 10
29441.217707
 20
25964.933008
 30
0.0
 11
37848.379745
 21
23554.246215
 31
0.0
  0
LINE
  5
2CF6
100
AcDbEntity
  8
LJ
 62
     5
100
AcDbLine
 10
29745.604002
 20
27487.430512
 30
0.0
 11
29292.366724
 21
25906.712349
 31
0.0
  0
LINE
  5
2CF7
100
AcDbEntity
  8
LJ
 62
     5
100
AcDbLine
 10
29896.575871
 20
27286.83414
 30
0.0
 11
29540.840001
 21
26046.032093
 31
0.0
  0
LINE
  5
2CF8
100
AcDbEntity
  8
LJ
 62
     5
100
AcDbLine
 10
29498.004099
 20
26054.373888
 30
0.0
 11
29855.975964
 21
27302.402299
 31
0.0
  0
ARC
  5
2CF9
100
AcDbEntity
  8
LJ
100
AcDbCircle
 10
29333.161661
 20
26048.742674
 30
0.0
 40
74.9999
100
AcDbArc
 50
244.403
 51
83.5975
  0
ARC
  5
2CFA
100
AcDbEntity
  8
LJ
100
AcDbCircle
 10
29333.161661
 20
26048.742674
 30
0.0
 40
75.0
100
AcDbArc
 50
64.4019
 51
263.598
  0
LINE
  5
2CFB
100
AcDbEntity
  8
LJ
100
AcDbLine
 10
29407.933155
 20
25964.930302
 30
0.0
 11
29324.775633
 21
25974.265533
 31
0.0
  0
LINE
  5
2CFC
100
AcDbEntity
  8
LJ
100
AcDbLine
 10
29225.294128
 20
26017.262278
 30
0.0
 11
29300.764939
 21
25981.090236
 31
0.0
  0
LINE
  5
2CFD
100
AcDbEntity
  8
LJ
100
AcDbLine
 10
29540.840001
 20
26046.032093
 30
0.0
 11
29547.696984
 21
26033.675646
 31
0.0
  0
LINE
  5
2CFE
100
AcDbEntity
  8
LJ
100
AcDbLine
 10
29445.042067
 20
25963.844649
 30
0.0
 11
29447.236097
 21
25963.207283
 31
0.0
  0
LINE
  5
2CFF
100
AcDbEntity
  8
LJ
100
AcDbLine
 10
29469.212132
 20
26062.586308
 30
0.0
 11
29543.43444
 21
26041.313101
 31
0.0
  0
LINE
  5
2D00
100
AcDbEntity
  8
LJ
100
AcDbLine
 10
29437.31214
 20
25951.30917
 30
0.0
 11
29473.145724
 21
26076.307907
 31
0.0
  0
LINE
  5
2D01
100
AcDbEntity
  8
LJ
100
AcDbLine
 10
29211.088297
 20
26083.726437
 30
0.0
 11
29436.331547
 21
26019.195681
 31
0.0
  0
LINE
  5
2D02
100
AcDbEntity
  8
LJ
100
AcDbLine
 10
29441.029194
 20
26080.22307
 30
0.0
 11
29365.558383
 21
26116.395112
 31
0.0
  0
LINE
  5
2D03
100
AcDbEntity
  8
LJ
100
AcDbLine
 10
29259.802474
 20
26137.463751
 30
0.0
 11
29223.968889
 21
26012.465014
 31
0.0
  0
LINE
  5
2D04
100
AcDbEntity
  8
LJ
100
AcDbLine
 10
29258.37798
 20
26132.6543
 30
0.0
 11
29341.535502
 21
26123.31907
 31
0.0
  0
LINE
  5
2D05
100
AcDbEntity
  8
LJ
100
AcDbLine
 10
29259.802474
 20
26137.463751
 30
0.0
 11
29228.998995
 21
26146.275433
 31
0.0
  0
LINE
  5
2D06
100
AcDbEntity
  8
LJ
100
AcDbLine
 10
29223.968889
 20
26012.465014
 30
0.0
 11
29193.165411
 21
26021.276696
 31
0.0
  0
LINE
  5
2D07
100
AcDbEntity
  8
LJ
100
AcDbLine
 10
29228.998995
 20
26146.275433
 30
0.0
 11
29193.165411
 21
26021.276696
 31
0.0
  0
LINE
  5
2D08
100
AcDbEntity
  8
LJ
100
AcDbLine
 10
29406.508662
 20
25960.120851
 30
0.0
 11
29442.342246
 21
26085.119588
 31
0.0
  0
LINE
  5
2D09
100
AcDbEntity
  8
LJ
100
AcDbLine
 10
29442.342246
 20
26085.119588
 30
0.0
 11
29473.145724
 21
26076.307907
 31
0.0
  0
LINE
  5
2D0A
100
AcDbEntity
  8
LJ
100
AcDbLine
 10
29406.508662
 20
25960.120851
 30
0.0
 11
29437.31214
 21
25951.30917
 31
0.0
  0
ARC
  5
2D0B
100
AcDbEntity
  8
LJ
 62
     5
100
AcDbCircle
 10
29924.16668
 20
27437.116798
 30
0.0
 40
37.5
100
AcDbArc
 50
344.0
 51
164.0
  0
LINE
  5
2D0C
100
AcDbEntity
  8
LJ
 62
     5
100
AcDbLine
 10
29908.932318
 20
27293.691123
 30
0.0
 11
29896.575871
 21
27286.83414
 31
0.0
  0
LINE
  5
2D0D
100
AcDbEntity
  8
LJ
 62
     5
100
AcDbLine
 10
29947.364857
 20
27381.93261
 30
0.0
 11
29960.219943
 21
27426.778691
 31
0.0
  0
LINE
  5
2D0E
100
AcDbEntity
  8
LJ
 62
     5
100
AcDbLine
 10
29823.181862
 20
27297.065926
 30
0.0
 11
29859.015446
 21
27422.064663
 31
0.0
  0
LINE
  5
2D0F
100
AcDbEntity
  8
LJ
 62
     5
100
AcDbLine
 10
29827.089485
 20
27310.696934
 30
0.0
 11
29901.294863
 21
27289.428579
 31
0.0
  0
LINE
  5
2D10
100
AcDbEntity
  8
LJ
 62
     5
100
AcDbLine
 10
29888.132359
 20
27447.502734
 30
0.0
 11
29875.3084
 21
27402.605227
 31
0.0
  0
ARC
  5
2D11
100
AcDbEntity
  8
LJ
 62
     5
100
AcDbCircle
 10
29719.130638
 20
27394.511617
 30
0.0
 40
74.9999
100
AcDbArc
 50
244.403
 51
83.5975
  0
LINE
  5
2D12
100
AcDbEntity
  8
LJ
 62
     5
100
AcDbLine
 10
29614.967972
 20
27492.044376
 30
0.0
 11
29579.134388
 21
27367.045639
 31
0.0
  0
LINE
  5
2D13
100
AcDbEntity
  8
LJ
 62
     5
100
AcDbLine
 10
29644.346957
 20
27478.423244
 30
0.0
 11
29727.405224
 21
27469.075826
 31
0.0
  0
LINE
  5
2D14
100
AcDbEntity
  8
LJ
 62
     5
100
AcDbLine
 10
29645.672196
 20
27483.220508
 30
0.0
 11
29614.967972
 21
27492.044376
 31
0.0
  0
LINE
  5
2D15
100
AcDbEntity
  8
LJ
 62
     5
100
AcDbLine
 10
29609.838612
 20
27358.221771
 30
0.0
 11
29579.134388
 21
27367.045639
 31
0.0
  0
LINE
  5
2D16
100
AcDbEntity
  8
LJ
 62
     5
100
AcDbLine
 10
29611.263105
 20
27363.031222
 30
0.0
 11
29686.733916
 21
27326.859179
 31
0.0
  0
LINE
  5
2D17
100
AcDbEntity
  8
LJ
 62
     5
100
AcDbLine
 10
29645.672196
 20
27483.220508
 30
0.0
 11
29609.838612
 21
27358.221771
 31
0.0
  0
ARC
  5
2D18
100
AcDbEntity
  8
LJ
 62
     5
100
AcDbCircle
 10
29719.019196
 20
27394.598685
 30
0.0
 40
75.0
100
AcDbArc
 50
64.4019
 51
263.598
  0
LINE
  5
2D19
100
AcDbEntity
  8
LJ
 62
     5
100
AcDbLine
 10
29793.802877
 20
27310.687059
 30
0.0
 11
29710.645355
 21
27320.022289
 31
0.0
  0
LINE
  5
2D1A
100
AcDbEntity
  8
LJ
 62
     5
100
AcDbLine
 10
29792.378384
 20
27305.877608
 30
0.0
 11
29828.211968
 21
27430.876345
 31
0.0
  0
LINE
  5
2D1B
100
AcDbEntity
  8
LJ
 62
     5
100
AcDbLine
 10
29826.898916
 20
27425.979826
 30
0.0
 11
29751.428105
 21
27462.151869
 31
0.0
  0
LINE
  5
2D1C
100
AcDbEntity
  8
LJ
 62
     5
100
AcDbLine
 10
29828.211968
 20
27430.876345
 30
0.0
 11
29859.015446
 21
27422.064663
 31
0.0
  0
LINE
  5
2D1D
100
AcDbEntity
  8
LJ
 62
     5
100
AcDbLine
 10
29792.378384
 20
27305.877608
 30
0.0
 11
29823.181862
 21
27297.065926
 31
0.0
  0
LINE
  5
2D1E
100
AcDbEntity
  8
LJ
 62
     5
100
AcDbLine
 10
30289.97837
 20
26502.632524
 30
0.0
 11
38307.522894
 21
24203.588687
 31
0.0
  0
LINE
  5
2D1F
100
AcDbEntity
  8
LJ
 62
     5
100
AcDbLine
 10
29924.281396
 20
25932.112706
 30
0.0
 11
37876.401469
 21
23651.88392
 31
0.0
  0
LINE
  5
2D20
100
AcDbEntity
  8
LJ
 62
     5
100
AcDbLine
 10
30282.141819
 20
27180.228184
 30
0.0
 11
38234.249465
 21
24900.002962
 31
0.0
  0
LINE
  5
2D21
100
AcDbEntity
  8
LJ
 62
     5
100
AcDbLine
 10
30283.829275
 20
27186.178184
 30
0.0
 11
29922.59394
 21
25926.162706
 31
0.0
  0
LINE
  5
2D22
100
AcDbEntity
  8
LJ
 62
     5
100
AcDbLine
 10
37847.519219
 20
23660.177839
 30
0.0
 11
38205.478898
 21
24908.305504
 31
0.0
  0
LINE
  5
2D23
100
AcDbEntity
  8
LJ
 62
     5
100
AcDbLine
 10
37792.804302
 20
23675.82641
 30
0.0
 11
38150.664725
 21
24923.941888
 31
0.0
  0
LINE
  5
2D24
100
AcDbEntity
  8
LJ
 62
     5
100
AcDbLine
 10
38397.017583
 20
25006.681478
 30
0.0
 11
37943.780305
 21
23425.963315
 31
0.0
  0
POINT
  5
2D25
100
AcDbEntity
  8
LJ
 62
     5
100
AcDbPoint
 10
38177.442984
 20
24240.889311
 30
0.0
  0
LINE
  5
2D26
100
AcDbEntity
  8
LJ
 62
     5
100
AcDbLine
 10
37481.967492
 20
25168.571629
 30
0.0
 11
37752.539208
 21
23634.511374
 31
0.0
  0
LINE
  5
2D27
100
AcDbEntity
  8
LJ
 62
     5
100
AcDbLine
 10
37095.998515
 20
23822.802685
 30
0.0
 11
38138.508185
 21
24980.280317
 31
0.0
  0
ARC
  5
2D28
100
AcDbEntity
  8
LJ
 62
     5
100
AcDbCircle
 10
37984.463801
 20
23568.080707
 30
0.0
 40
74.9999
100
AcDbArc
 50
244.403
 51
83.5975
  0
LINE
  5
2D29
100
AcDbEntity
  8
LJ
 62
     5
100
AcDbLine
 10
37876.596267
 20
23536.600312
 30
0.0
 11
37952.067079
 21
23500.428269
 31
0.0
  0
ARC
  5
2D2A
100
AcDbEntity
  8
LJ
 62
     5
100
AcDbCircle
 10
37984.463801
 20
23568.080707
 30
0.0
 40
75.0
100
AcDbArc
 50
64.4019
 51
263.598
  0
LINE
  5
2D2B
100
AcDbEntity
  8
LJ
 62
     5
100
AcDbLine
 10
38059.346736
 20
23484.181268
 30
0.0
 11
37976.189214
 21
23493.516499
 31
0.0
  0
LINE
  5
2D2C
100
AcDbEntity
  8
LJ
 62
     5
100
AcDbLine
 10
37909.692306
 20
23651.893079
 30
0.0
 11
37992.849828
 21
23642.557848
 31
0.0
  0
LINE
  5
2D2D
100
AcDbEntity
  8
LJ
 62
     5
100
AcDbLine
 10
37875.271029
 20
23531.803048
 30
0.0
 11
37911.017545
 21
23656.690343
 31
0.0
  0
LINE
  5
2D2E
100
AcDbEntity
  8
LJ
 62
     5
100
AcDbLine
 10
38057.922243
 20
23479.371817
 30
0.0
 11
38093.755827
 21
23604.370554
 31
0.0
  0
LINE
  5
2D2F
100
AcDbEntity
  8
LJ
 62
     5
100
AcDbLine
 10
38088.626467
 20
23470.547949
 30
0.0
 11
38124.460051
 21
23595.546686
 31
0.0
  0
LINE
  5
2D30
100
AcDbEntity
  8
LJ
 62
     5
100
AcDbLine
 10
38093.755827
 20
23604.370554
 30
0.0
 11
38124.460051
 21
23595.546686
 31
0.0
  0
LINE
  5
2D31
100
AcDbEntity
  8
LJ
 62
     5
100
AcDbLine
 10
38057.922243
 20
23479.371817
 30
0.0
 11
38088.626467
 21
23470.547949
 31
0.0
  0
LINE
  5
2D32
100
AcDbEntity
  8
LJ
 62
     5
100
AcDbLine
 10
38092.430588
 20
23599.57329
 30
0.0
 11
38016.971964
 21
23635.646078
 31
0.0
  0
LINE
  5
2D33
100
AcDbEntity
  8
LJ
 62
     5
100
AcDbLine
 10
37844.467551
 20
23540.614729
 30
0.0
 11
37880.313322
 21
23665.514211
 31
0.0
  0
LINE
  5
2D34
100
AcDbEntity
  8
LJ
 62
     5
100
AcDbLine
 10
37844.574096
 20
23555.337454
 30
0.0
 11
37842.380066
 21
23555.97482
 31
0.0
  0
LINE
  5
2D35
100
AcDbEntity
  8
LJ
 62
     5
100
AcDbLine
 10
37875.271029
 20
23531.803048
 30
0.0
 11
37844.467551
 21
23540.614729
 31
0.0
  0
LINE
  5
2D36
100
AcDbEntity
  8
LJ
 62
     5
100
AcDbLine
 10
37911.017545
 20
23656.690343
 30
0.0
 11
37880.313322
 21
23665.514211
 31
0.0
  0
LINE
  5
2D37
100
AcDbEntity
  8
LJ
 62
     5
100
AcDbLine
 10
38443.791965
 20
24825.128573
 30
0.0
 11
38479.625549
 21
24950.12731
 31
0.0
  0
LINE
  5
2D38
100
AcDbEntity
  8
LJ
 62
     5
100
AcDbLine
 10
38443.791965
 20
24825.128573
 30
0.0
 11
38474.595443
 21
24816.316892
 31
0.0
  0
LINE
  5
2D39
100
AcDbEntity
  8
LJ
 62
     5
100
AcDbLine
 10
38478.30031
 20
24945.330046
 30
0.0
 11
38402.841686
 21
24981.402834
 31
0.0
  0
ARC
  5
2D3A
100
AcDbEntity
  8
LJ
 62
     5
100
AcDbCircle
 10
38370.333523
 20
24913.837464
 30
0.0
 40
74.9999
100
AcDbArc
 50
244.403
 51
83.5975
  0
LINE
  5
2D3B
100
AcDbEntity
  8
LJ
 62
     5
100
AcDbLine
 10
38295.562029
 20
24997.649835
 30
0.0
 11
38378.719551
 21
24988.314605
 31
0.0
  0
LINE
  5
2D3C
100
AcDbEntity
  8
LJ
 62
     5
100
AcDbLine
 10
38262.46599
 20
24882.357068
 30
0.0
 11
38337.936801
 21
24846.185025
 31
0.0
  0
LINE
  5
2D3D
100
AcDbEntity
  8
LJ
 62
     5
100
AcDbLine
 10
38296.986522
 20
25002.459286
 30
0.0
 11
38261.140751
 21
24877.559804
 31
0.0
  0
ARC
  5
2D3E
100
AcDbEntity
  8
LJ
 62
     5
100
AcDbCircle
 10
38370.432777
 20
24913.849651
 30
0.0
 40
75.0
100
AcDbArc
 50
64.4019
 51
263.598
  0
LINE
  5
2D3F
100
AcDbEntity
  8
LJ
 62
     5
100
AcDbLine
 10
38445.216458
 20
24829.938024
 30
0.0
 11
38362.058936
 21
24839.273255
 31
0.0
  0
LINE
  5
2D40
100
AcDbEntity
  8
LJ
 62
     5
100
AcDbLine
 10
38474.595443
 20
24816.316892
 30
0.0
 11
38510.429027
 21
24941.315629
 31
0.0
  0
LINE
  5
2D41
100
AcDbEntity
  8
LJ
 62
     5
100
AcDbLine
 10
38479.625549
 20
24950.12731
 30
0.0
 11
38510.429027
 21
24941.315629
 31
0.0
  0
LINE
  5
2D42
100
AcDbEntity
  8
LJ
 62
     5
100
AcDbLine
 10
38266.183044
 20
25011.270968
 30
0.0
 11
38230.337273
 21
24886.371485
 31
0.0
  0
LINE
  5
2D43
100
AcDbEntity
  8
LJ
 62
     5
100
AcDbLine
 10
38296.986522
 20
25002.459286
 30
0.0
 11
38266.183044
 21
25011.270968
 31
0.0
  0
LINE
  5
2D44
100
AcDbEntity
  8
LJ
 62
     5
100
AcDbLine
 10
38261.140751
 20
24877.559804
 30
0.0
 11
38230.337273
 21
24886.371485
 31
0.0
  0
LINE
  5
2D45
100
AcDbEntity
  8
LJ
 62
     5
100
AcDbLine
 10
15347.922712
 20
52226.755511
 30
0.0
 11
24194.507408
 21
49690.074947
 31
0.0
  0
LINE
  5
2D46
100
AcDbEntity
  8
LJ
 62
     5
100
AcDbLine
 10
15364.03992
 20
51610.307664
 30
0.0
 11
23823.213095
 21
49184.695212
 31
0.0
  0
LINE
  5
2D47
100
AcDbEntity
  8
LJ
 62
     5
100
AcDbLine
 10
15688.295342
 20
52741.035935
 30
0.0
 11
24147.393494
 21
50315.444995
 31
0.0
  0
LINE
  5
2D48
100
AcDbEntity
  8
LJ
 62
     5
100
AcDbLine
 10
16125.491587
 20
52536.324802
 30
0.0
 11
24126.382061
 21
50242.037533
 31
0.0
  0
LINE
  5
2D49
100
AcDbEntity
  8
LJ
 62
     5
100
AcDbLine
 10
15843.322795
 20
51552.201571
 30
0.0
 11
23844.167406
 21
49258.023259
 31
0.0
  0
LINE
  5
2D4A
100
AcDbEntity
  8
LJ
 62
     5
100
AcDbLine
 10
15605.324868
 20
52814.405195
 30
0.0
 11
15248.589415
 21
51570.256383
 31
0.0
  0
LINE
  5
2D4B
100
AcDbEntity
  8
LJ
 62
     5
100
AcDbLine
 10
15700.89986
 20
52657.986938
 30
0.0
 11
15418.718881
 21
51673.962962
 31
0.0
  0
LINE
  5
2D4C
100
AcDbEntity
  8
LJ
 62
     5
100
AcDbLine
 10
15480.47471
 20
51616.561241
 30
0.0
 11
16353.213573
 21
52510.686023
 31
0.0
  0
LINE
  5
2D4D
100
AcDbEntity
  8
LJ
 62
     5
100
AcDbLine
 10
15739.288273
 20
52640.736728
 30
0.0
 11
15460.419512
 21
51668.302801
 31
0.0
  0
LINE
  5
2D4E
100
AcDbEntity
  8
LJ
 62
     5
100
AcDbLine
 10
15604.46286
 20
52811.579077
 30
0.0
 11
15253.301752
 21
51586.854391
 31
0.0
  0
LINE
  5
2D4F
100
AcDbEntity
  8
LJ
 62
     5
100
AcDbLine
 10
15783.666149
 20
52673.992918
 30
0.0
 11
16050.022134
 21
51453.254346
 31
0.0
  0
LINE
  5
2D50
100
AcDbEntity
  8
LJ
 62
     5
100
AcDbLine
 10
16126.541676
 20
52540.080772
 30
0.0
 11
15842.173451
 21
51548.433414
 31
0.0
  0
POINT
  5
2D51
100
AcDbEntity
  8
LJ
 62
     5
100
AcDbPoint
 10
15430.073529
 20
52203.199485
 30
0.0
  0
LINE
  5
2D52
100
AcDbEntity
  8
LJ
 62
     5
100
AcDbLine
 10
15467.276495
 20
51655.946354
 30
0.0
 11
15842.173451
 21
51548.433414
 31
0.0
  0
LINE
  5
2D53
100
AcDbEntity
  8
LJ
 62
     5
100
AcDbLine
 10
15460.419512
 20
51668.302801
 30
0.0
 11
15467.276495
 21
51655.946354
 31
0.0
  0
ARC
  5
2D54
100
AcDbEntity
  8
LJ
 62
     5
100
AcDbCircle
 10
15278.498624
 20
51674.579003
 30
0.0
 40
64.9999
100
AcDbArc
 50
56.9624
 51
271.038
  0
LINE
  5
2D55
100
AcDbEntity
  8
LJ
 62
     5
100
AcDbLine
 10
15362.15454
 20
51603.746117
 30
0.0
 11
15338.143846
 21
51610.57082
 31
0.0
  0
LINE
  5
2D56
100
AcDbEntity
  8
LJ
 62
     5
100
AcDbLine
 10
15362.15454
 20
51603.746117
 30
0.0
 11
15387.001383
 21
51690.21874
 31
0.0
  0
LINE
  5
2D57
100
AcDbEntity
  8
LJ
 62
     5
100
AcDbLine
 10
15338.143846
 20
51610.57082
 30
0.0
 11
15279.634257
 21
51609.532556
 31
0.0
  0
LINE
  5
2D58
100
AcDbEntity
  8
LJ
 62
     5
100
AcDbLine
 10
15387.001383
 20
51690.21874
 30
0.0
 11
15362.978502
 21
51697.142697
 31
0.0
  0
LINE
  5
2D59
100
AcDbEntity
  8
LJ
 62
     5
100
AcDbLine
 10
15362.978502
 20
51697.142697
 30
0.0
 11
15313.930147
 21
51729.002686
 31
0.0
  0
ARC
  5
2D5A
100
AcDbEntity
  8
LJ
 62
     5
100
AcDbCircle
 10
15278.39937
 20
51674.566816
 30
0.0
 40
65.0
100
AcDbArc
 50
236.962
 51
91.0376
  0
LINE
  5
2D5B
100
AcDbEntity
  8
LJ
 62
     5
100
AcDbLine
 10
15182.332219
 20
51702.064137
 30
0.0
 11
15364.562041
 21
51649.782667
 31
0.0
  0
LINE
  5
2D5C
100
AcDbEntity
  8
LJ
 62
     5
100
AcDbLine
 10
15194.656386
 20
51745.288261
 30
0.0
 11
15169.901739
 21
51658.916014
 31
0.0
  0
LINE
  5
2D5D
100
AcDbEntity
  8
LJ
 62
     5
100
AcDbLine
 10
15193.931679
 20
51651.903868
 30
0.0
 11
15242.980034
 21
51620.043879
 31
0.0
  0
LINE
  5
2D5E
100
AcDbEntity
  8
LJ
 62
     5
100
AcDbLine
 10
15218.766335
 20
51738.475745
 30
0.0
 11
15277.275924
 21
51739.514009
 31
0.0
  0
LINE
  5
2D5F
100
AcDbEntity
  8
LJ
 62
     5
100
AcDbLine
 10
15194.656386
 20
51745.288261
 30
0.0
 11
15218.766335
 21
51738.475745
 31
0.0
  0
LINE
  5
2D60
100
AcDbEntity
  8
LJ
 62
     5
100
AcDbLine
 10
15169.901739
 20
51658.916014
 30
0.0
 11
15193.931679
 21
51651.903868
 31
0.0
  0
LINE
  5
2D61
100
AcDbEntity
  8
LJ
 62
     5
100
AcDbLine
 10
15385.100617
 20
51683.603646
 30
0.0
 11
15464.558427
 21
51660.851668
 31
0.0
  0
LINE
  5
2D62
100
AcDbEntity
  8
LJ
 62
     5
100
AcDbLine
 10
15597.453917
 20
51543.472628
 30
0.0
 11
15600.025741
 21
51539.758369
 31
0.0
  0
LINE
  5
2D63
100
AcDbEntity
  8
LJ
 62
     5
100
AcDbLine
 10
15751.743975
 20
52647.605898
 30
0.0
 11
16126.541676
 21
52540.080772
 31
0.0
  0
LINE
  5
2D64
100
AcDbEntity
  8
LJ
 62
     5
100
AcDbLine
 10
15739.288273
 20
52640.736728
 30
0.0
 11
15751.743975
 21
52647.605898
 31
0.0
  0
LINE
  5
2D65
100
AcDbEntity
  8
LJ
 62
     5
100
AcDbLine
 10
15497.94708
 20
52802.732125
 30
0.0
 11
15473.100237
 21
52716.259503
 31
0.0
  0
ARC
  5
2D66
100
AcDbEntity
  8
LJ
 62
     5
100
AcDbCircle
 10
15581.70225
 20
52731.911426
 30
0.0
 40
64.9999
100
AcDbArc
 50
56.9624
 51
271.038
  0
LINE
  5
2D67
100
AcDbEntity
  8
LJ
 62
     5
100
AcDbLine
 10
15690.192822
 20
52747.650416
 30
0.0
 11
15665.358166
 21
52661.07854
 31
0.0
  0
ARC
  5
2D68
100
AcDbEntity
  8
LJ
 62
     5
100
AcDbCircle
 10
15581.602995
 20
52731.899239
 30
0.0
 40
65.0
100
AcDbArc
 50
236.962
 51
91.0376
  0
LINE
  5
2D69
100
AcDbEntity
  8
LJ
 62
     5
100
AcDbLine
 10
15473.100237
 20
52716.259503
 30
0.0
 11
15497.123118
 21
52709.335545
 31
0.0
  0
LINE
  5
2D6A
100
AcDbEntity
  8
LJ
 62
     5
100
AcDbLine
 10
15665.358166
 20
52661.07854
 30
0.0
 11
15641.335285
 21
52668.002497
 31
0.0
  0
LINE
  5
2D6B
100
AcDbEntity
  8
LJ
 62
     5
100
AcDbLine
 10
15641.335285
 20
52668.002497
 30
0.0
 11
15582.825696
 21
52666.964233
 31
0.0
  0
LINE
  5
2D6C
100
AcDbEntity
  8
LJ
 62
     5
100
AcDbLine
 10
15497.123118
 20
52709.335545
 30
0.0
 11
15546.18366
 21
52677.376302
 31
0.0
  0
LINE
  5
2D6D
100
AcDbEntity
  8
LJ
 62
     5
100
AcDbLine
 10
15798.826273
 20
52776.619894
 30
0.0
 11
15781.335434
 21
52714.309388
 31
0.0
  0
LINE
  5
2D6E
100
AcDbEntity
  8
LJ
 62
     5
100
AcDbLine
 10
15485.523658
 20
52759.495814
 30
0.0
 11
15662.423382
 21
52708.776412
 31
0.0
  0
LINE
  5
2D6F
100
AcDbEntity
  8
LJ
 62
     5
100
AcDbLine
 10
15725.639796
 20
52792.101649
 30
0.0
 11
15709.278978
 21
52734.982005
 31
0.0
  0
LINE
  5
2D70
100
AcDbEntity
  8
LJ
 62
     5
100
AcDbLine
 10
15666.182128
 20
52754.475119
 30
0.0
 11
15617.121586
 21
52786.434363
 31
0.0
  0
LINE
  5
2D71
100
AcDbEntity
  8
LJ
 62
     5
100
AcDbLine
 10
15690.192822
 20
52747.650416
 30
0.0
 11
15666.182128
 21
52754.475119
 31
0.0
  0
LINE
  5
2D72
100
AcDbEntity
  8
LJ
 62
     5
100
AcDbLine
 10
15497.94708
 20
52802.732125
 30
0.0
 11
15521.969961
 21
52795.808167
 31
0.0
  0
LINE
  5
2D73
100
AcDbEntity
  8
LJ
 62
     5
100
AcDbLine
 10
15521.969961
 20
52795.808167
 30
0.0
 11
15580.467363
 21
52796.945686
 31
0.0
  0
ARC
  5
2D74
100
AcDbEntity
  8
LJ
 62
     5
100
AcDbCircle
 10
15761.674117
 20
52781.715713
 30
0.0
 40
37.5
100
AcDbArc
 50
352.19
 51
164.0
  0
LINE
  5
2D75
100
AcDbEntity
  8
LJ
 62
     5
100
AcDbLine
 10
15667.26696
 20
52667.732464
 30
0.0
 11
15746.739406
 21
52644.875644
 31
0.0
  0
LINE
  5
2D76
100
AcDbEntity
  8
LJ
 62
     5
100
AcDbLine
 10
24316.672492
 20
50180.317318
 30
0.0
 11
24292.649611
 21
50187.241276
 31
0.0
  0
LINE
  5
2D77
100
AcDbEntity
  8
LJ
 62
     5
100
AcDbLine
 10
24341.507148
 20
50266.889195
 30
0.0
 11
24317.496454
 21
50273.713898
 31
0.0
  0
LINE
  5
2D78
100
AcDbEntity
  8
LJ
 62
     5
100
AcDbLine
 10
24013.468866
 20
49122.984896
 30
0.0
 11
23989.458172
 21
49129.809599
 31
0.0
  0
LINE
  5
2D79
100
AcDbEntity
  8
LJ
 62
     5
100
AcDbLine
 10
24038.315709
 20
49209.457518
 30
0.0
 11
24014.292828
 21
49216.381475
 31
0.0
  0
POINT
  5
2D7A
100
AcDbEntity
  8
LJ
 62
     5
100
AcDbPoint
 10
24081.436869
 20
49722.496933
 30
0.0
  0
LINE
  5
2D7B
100
AcDbEntity
  8
LJ
 62
     5
100
AcDbLine
 10
24097.506516
 20
50250.329565
 30
0.0
 11
23815.325537
 21
49266.305589
 31
0.0
  0
LINE
  5
2D7C
100
AcDbEntity
  8
LJ
 62
     5
100
AcDbLine
 10
24050.824185
 20
50263.740382
 30
0.0
 11
23768.643207
 21
49279.716406
 31
0.0
  0
LINE
  5
2D7D
100
AcDbEntity
  8
LJ
 62
     5
100
AcDbLine
 10
24260.538271
 20
50347.018845
 30
0.0
 11
23896.729099
 21
49078.42576
 31
0.0
  0
LINE
  5
2D7E
100
AcDbEntity
  8
LJ
 62
     5
100
AcDbLine
 10
24256.639194
 20
50333.643973
 30
0.0
 11
23899.903741
 21
49089.495161
 31
0.0
  0
LINE
  5
2D7F
100
AcDbEntity
  8
LJ
 62
     5
100
AcDbLine
 10
24038.465363
 20
50306.956346
 30
0.0
 11
23165.825755
 21
49412.84375
 31
0.0
  0
LINE
  5
2D80
100
AcDbEntity
  8
LJ
 62
     5
100
AcDbLine
 10
23735.273924
 20
49249.524669
 30
0.0
 11
23469.017194
 21
50470.275427
 31
0.0
  0
ARC
  5
2D81
100
AcDbEntity
  8
LJ
 62
     5
100
AcDbCircle
 10
23929.812951
 20
49193.817782
 30
0.0
 40
64.9999
100
AcDbArc
 50
236.962
 51
91.0375
  0
LINE
  5
2D82
100
AcDbEntity
  8
LJ
 62
     5
100
AcDbLine
 10
23821.322379
 20
49178.078791
 30
0.0
 11
23846.05778
 21
49264.638481
 31
0.0
  0
ARC
  5
2D83
100
AcDbEntity
  8
LJ
 62
     5
100
AcDbCircle
 10
23929.812951
 20
49193.817782
 30
0.0
 40
64.9999
100
AcDbArc
 50
56.9624
 51
271.038
  0
LINE
  5
2D84
100
AcDbEntity
  8
LJ
 62
     5
100
AcDbLine
 10
23821.322379
 20
49178.078791
 30
0.0
 11
23845.333073
 21
49171.254088
 31
0.0
  0
LINE
  5
2D85
100
AcDbEntity
  8
LJ
 62
     5
100
AcDbLine
 10
23845.333073
 20
49171.254088
 30
0.0
 11
23894.393615
 21
49139.294845
 31
0.0
  0
LINE
  5
2D86
100
AcDbEntity
  8
LJ
 62
     5
100
AcDbLine
 10
23989.458172
 20
49129.809599
 30
0.0
 11
23930.948583
 21
49128.771334
 31
0.0
  0
LINE
  5
2D87
100
AcDbEntity
  8
LJ
 62
     5
100
AcDbLine
 10
24014.292828
 20
49216.381475
 30
0.0
 11
23965.244473
 21
49248.241464
 31
0.0
  0
LINE
  5
2D88
100
AcDbEntity
  8
LJ
 62
     5
100
AcDbLine
 10
23846.05778
 20
49264.638481
 30
0.0
 11
23870.179916
 21
49257.726711
 31
0.0
  0
LINE
  5
2D89
100
AcDbEntity
  8
LJ
 62
     5
100
AcDbLine
 10
23870.179916
 20
49257.726711
 30
0.0
 11
23928.689505
 21
49258.764975
 31
0.0
  0
ARC
  5
2D8A
100
AcDbEntity
  8
LJ
 62
     5
100
AcDbCircle
 10
24233.016576
 20
50251.150204
 30
0.0
 40
64.9999
100
AcDbArc
 50
236.962
 51
91.0375
  0
LINE
  5
2D8B
100
AcDbEntity
  8
LJ
 62
     5
100
AcDbLine
 10
24149.261406
 20
50321.970903
 30
0.0
 11
24124.513818
 21
50235.510468
 31
0.0
  0
ARC
  5
2D8C
100
AcDbEntity
  8
LJ
 62
     5
100
AcDbCircle
 10
24233.016576
 20
50251.150204
 30
0.0
 40
64.9999
100
AcDbArc
 50
56.9624
 51
271.038
  0
LINE
  5
2D8D
100
AcDbEntity
  8
LJ
 62
     5
100
AcDbLine
 10
24124.513818
 20
50235.510468
 30
0.0
 11
24148.536699
 21
50228.586511
 31
0.0
  0
LINE
  5
2D8E
100
AcDbEntity
  8
LJ
 62
     5
100
AcDbLine
 10
24148.536699
 20
50228.586511
 30
0.0
 11
24197.585054
 21
50196.726522
 31
0.0
  0
LINE
  5
2D8F
100
AcDbEntity
  8
LJ
 62
     5
100
AcDbLine
 10
24292.649611
 20
50187.241276
 30
0.0
 11
24234.140022
 21
50186.203011
 31
0.0
  0
LINE
  5
2D90
100
AcDbEntity
  8
LJ
 62
     5
100
AcDbLine
 10
24149.261406
 20
50321.970903
 30
0.0
 11
24173.371355
 21
50315.158388
 31
0.0
  0
LINE
  5
2D91
100
AcDbEntity
  8
LJ
 62
     5
100
AcDbLine
 10
24173.371355
 20
50315.158388
 30
0.0
 11
24231.880944
 21
50316.196652
 31
0.0
  0
LINE
  5
2D92
100
AcDbEntity
  8
LJ
 62
     5
100
AcDbLine
 10
24317.496454
 20
50273.713898
 30
0.0
 11
24268.435912
 21
50305.673141
 31
0.0
  0
LINE
  5
2D93
100
AcDbEntity
  8
LJ
 62
     5
100
AcDbLine
 10
24013.468866
 20
49122.984896
 30
0.0
 11
24038.315709
 21
49209.457518
 31
0.0
  0
LINE
  5
2D94
100
AcDbEntity
  8
LJ
 62
     5
100
AcDbLine
 10
24341.507148
 20
50266.889195
 30
0.0
 11
24316.672492
 21
50180.317318
 31
0.0
  0
LINE
  5
2D95
100
AcDbEntity
  8
LJ
 62
     5
100
AcDbLine
 10
6924.742343
 20
33202.440455
 30
0.0
 11
12408.236765
 21
31630.090259
 31
0.0
  0
LINE
  5
2D96
100
AcDbEntity
  8
LJ
 62
     5
100
AcDbLine
 10
12308.125808
 20
32440.096921
 30
0.0
 11
8088.528611
 21
33239.234235
 31
0.0
  0
LINE
  5
2D97
100
AcDbEntity
  8
LJ
 62
     5
100
AcDbLine
 10
12279.963358
 20
32341.968876
 30
0.0
 11
7569.996169
 21
33234.041967
 31
0.0
  0
LINE
  5
2D98
100
AcDbEntity
  8
LJ
 62
     5
100
AcDbLine
 10
11922.239417
 20
31094.27186
 30
0.0
 11
7455.227489
 21
32833.73532
 31
0.0
  0
LINE
  5
2D99
100
AcDbEntity
  8
LJ
 62
     5
100
AcDbLine
 10
11894.122631
 20
30996.22849
 30
0.0
 11
7567.988065
 21
32680.880625
 31
0.0
  0
CIRCLE
  5
2D9A
100
AcDbEntity
  8
LJ
 62
     5
100
AcDbCircle
 10
7347.97359
 20
32821.076742
 30
0.0
 40
250.0
  0
LINE
  5
2D9B
100
AcDbEntity
  8
LJ
 62
     5
100
AcDbLine
 10
7073.643284
 20
32899.730561
 30
0.0
 11
7632.542699
 21
32739.448548
 31
0.0
  0
LINE
  5
2D9C
100
AcDbEntity
  8
LJ
 62
     5
100
AcDbLine
 10
7217.273918
 20
32546.401068
 30
0.0
 11
7457.565422
 21
32477.471444
 31
0.0
  0
LINE
  5
2D9D
100
AcDbEntity
  8
LJ
 62
     5
100
AcDbLine
 10
7066.988661
 20
33243.582587
 30
0.0
 11
7952.432701
 21
33457.38472
 31
0.0
  0
POINT
  5
2D9E
100
AcDbEntity
  8
LJ
 62
     5
100
AcDbPoint
 10
7348.003304
 20
32821.049182
 30
0.0
  0
ARC
  5
2D9F
100
AcDbEntity
  8
LJ
 62
     5
100
AcDbCircle
 10
7327.536589
 20
32930.904739
 30
0.0
 40
400.0
100
AcDbArc
 50
178.478
 51
254.0
  0
LINE
  5
2DA0
100
AcDbEntity
  8
LJ
 62
     5
100
AcDbLine
 10
6927.65848
 20
32941.551214
 30
0.0
 11
6994.101333
 21
33173.376551
 31
0.0
  0
ARC
  5
2DA1
100
AcDbEntity
  8
LJ
 62
     5
100
AcDbCircle
 10
7090.405313
 20
33146.412065
 30
0.0
 40
100.0
100
AcDbArc
 50
103.5719
 51
164.0
  0
LINE
  5
2DA2
100
AcDbEntity
  8
LJ
 62
     5
100
AcDbLine
 10
8511.730679
 20
32422.431614
 30
0.0
 11
8683.924135
 21
33022.993212
 31
0.0
  0
LINE
  5
2DA3
100
AcDbEntity
  8
LJ
 62
     5
100
AcDbLine
 10
8458.403693
 20
32443.187399
 30
0.0
 11
8627.697656
 21
33033.72089
 31
0.0
  0
LINE
  5
2DA4
100
AcDbEntity
  8
LJ
 62
     5
100
AcDbLine
 10
9298.686708
 20
32958.331948
 30
0.0
 11
8517.709059
 21
32365.536104
 31
0.0
  0
LINE
  5
2DA5
100
AcDbEntity
  8
LJ
 62
     5
100
AcDbLine
 10
9067.287825
 20
32151.517646
 30
0.0
 11
8719.198732
 21
33068.027785
 31
0.0
  0
LINE
  5
2DA6
100
AcDbEntity
  8
LJ
 62
     5
100
AcDbLine
 10
7267.219591
 20
32539.234495
 30
0.0
 11
7429.314447
 21
33104.703812
 31
0.0
  0
LINE
  5
2DA7
100
AcDbEntity
  8
LJ
 62
     5
100
AcDbLine
 10
7519.446912
 20
32511.768546
 30
0.0
 11
7567.988065
 21
32680.880625
 31
0.0
  0
ARC
  5
2DA8
100
AcDbEntity
  8
LJ
 62
     5
100
AcDbCircle
 10
7471.301896
 20
32525.604274
 30
0.0
 40
50.0
100
AcDbArc
 50
254.0
 51
344.0
  0
LINE
  5
2DA9
100
AcDbEntity
  8
LJ
 62
     5
100
AcDbLine
 10
7540.01664
 20
33127.867675
 30
0.0
 11
7504.132549
 21
33002.459733
 31
0.0
  0
LINE
  5
2DAA
100
AcDbEntity
  8
LJ
 62
     5
100
AcDbLine
 10
7569.996169
 20
33234.041967
 30
0.0
 11
7524.284519
 21
33074.653763
 31
0.0
  0
LINE
  5
2DAB
100
AcDbEntity
  8
LJ
 62
     5
100
AcDbLine
 10
7515.559906
 20
33043.961727
 30
0.0
 11
7455.227489
 21
32833.73532
 31
0.0
  0
ARC
  5
2DAC
100
AcDbEntity
  8
LJ
 62
     5
100
AcDbCircle
 10
8105.129349
 20
33296.897513
 30
0.0
 40
50.0
100
AcDbArc
 50
174.236
 51
254.0
  0
ARC
  5
2DAD
100
AcDbEntity
  8
LJ
 62
     5
100
AcDbCircle
 10
7973.551045
 20
33369.906348
 30
0.0
 40
89.9999
100
AcDbArc
 50
352.458
 51
103.0553
  0
LINE
  5
2DAE
100
AcDbEntity
  8
LJ
 62
     5
100
AcDbLine
 10
8062.756062
 20
33358.089625
 30
0.0
 11
8055.455307
 21
33303.492931
 31
0.0
  0
LINE
  5
2DAF
100
AcDbEntity
  8
LJ
 62
     5
100
AcDbLine
 10
8091.281434
 20
33248.851751
 30
0.0
 11
8088.528611
 21
33239.234235
 31
0.0
  0
LINE
  5
2DB0
100
AcDbEntity
  8
LJ
 62
     5
100
AcDbLine
 10
12194.302296
 20
32358.245767
 30
0.0
 11
11840.941754
 21
31125.996954
 31
0.0
  0
LINE
  5
2DB1
100
AcDbEntity
  8
LJ
 62
     5
100
AcDbLine
 10
11624.399564
 20
32517.882
 30
0.0
 11
11798.984181
 21
31087.79889
 31
0.0
  0
LINE
  5
2DB2
100
AcDbEntity
  8
LJ
 62
     5
100
AcDbLine
 10
11273.001627
 20
31292.62448
 30
0.0
 11
12178.929529
 21
32412.87953
 31
0.0
  0
LINE
  5
2DB3
100
AcDbEntity
  8
LJ
 62
     5
100
AcDbLine
 10
12442.706585
 20
32448.894315
 30
0.0
 11
11989.45712
 21
30868.275407
 31
0.0
  0
LINE
  5
2DB4
100
AcDbEntity
  8
LJ
 62
     5
100
AcDbLine
 10
12452.542223
 20
32482.846049
 30
0.0
 11
11997.30578
 21
30895.434357
 31
0.0
  0
LINE
  5
2DB5
100
AcDbEntity
  8
LJ
 62
     5
100
AcDbLine
 10
12250.516588
 20
32347.617343
 30
0.0
 11
11894.268739
 21
31105.241168
 31
0.0
  0
CIRCLE
  5
2DB6
100
AcDbEntity
  8
LJ
 62
     5
100
AcDbCircle
 10
12030.252057
 20
31010.305732
 30
0.0
 40
35.0
  0
ARC
  5
2DB7
100
AcDbEntity
  8
LJ
 62
     5
100
AcDbCircle
 10
12030.252057
 20
31010.305732
 30
0.0
 40
74.9999
100
AcDbArc
 50
244.403
 51
83.5975
  0
CIRCLE
  5
2DB8
100
AcDbEntity
  8
LJ
 62
     5
100
AcDbCircle
 10
12030.252057
 20
31010.305732
 30
0.0
 40
34.9999
  0
LINE
  5
2DB9
100
AcDbEntity
  8
LJ
 62
     5
100
AcDbLine
 10
11956.905057
 20
31098.927554
 30
0.0
 11
11921.071472
 21
30973.928817
 31
0.0
  0
LINE
  5
2DBA
100
AcDbEntity
  8
LJ
 62
     5
100
AcDbLine
 10
11922.384524
 20
30978.825336
 30
0.0
 11
11997.855335
 21
30942.653293
 31
0.0
  0
LINE
  5
2DBB
100
AcDbEntity
  8
LJ
 62
     5
100
AcDbLine
 10
11955.480563
 20
31094.118103
 30
0.0
 11
12038.638085
 21
31084.782873
 31
0.0
  0
LINE
  5
2DBC
100
AcDbEntity
  8
LJ
 62
     5
100
AcDbLine
 10
11956.905057
 20
31098.927554
 30
0.0
 11
11926.101578
 21
31107.739236
 31
0.0
  0
LINE
  5
2DBD
100
AcDbEntity
  8
LJ
 62
     5
100
AcDbLine
 10
11921.071472
 20
30973.928817
 30
0.0
 11
11890.291788
 21
30982.870321
 31
0.0
  0
LINE
  5
2DBE
100
AcDbEntity
  8
LJ
 62
     5
100
AcDbLine
 10
11926.101578
 20
31107.739236
 30
0.0
 11
11890.291788
 21
30982.870321
 31
0.0
  0
POINT
  5
2DBF
100
AcDbEntity
  8
LJ
 62
     5
100
AcDbPoint
 10
12223.205177
 20
31683.146656
 30
0.0
  0
CIRCLE
  5
2DC0
100
AcDbEntity
  8
LJ
 62
     5
100
AcDbCircle
 10
12416.121779
 20
32356.062488
 30
0.0
 40
35.0
  0
ARC
  5
2DC1
100
AcDbEntity
  8
LJ
 62
     5
100
AcDbCircle
 10
12416.121779
 20
32356.062488
 30
0.0
 40
74.9999
100
AcDbArc
 50
244.403
 51
83.5975
  0
CIRCLE
  5
2DC2
100
AcDbEntity
  8
LJ
 62
     5
100
AcDbCircle
 10
12416.121779
 20
32356.062488
 30
0.0
 40
34.9999
  0
LINE
  5
2DC3
100
AcDbEntity
  8
LJ
 62
     5
100
AcDbLine
 10
12311.9713
 20
32453.495992
 30
0.0
 11
12276.125529
 21
32328.59651
 31
0.0
  0
LINE
  5
2DC4
100
AcDbEntity
  8
LJ
 62
     5
100
AcDbLine
 10
12341.350285
 20
32439.87486
 30
0.0
 11
12424.507807
 21
32430.539629
 31
0.0
  0
LINE
  5
2DC5
100
AcDbEntity
  8
LJ
 62
     5
100
AcDbLine
 10
12342.774779
 20
32444.684311
 30
0.0
 11
12311.9713
 21
32453.495992
 31
0.0
  0
LINE
  5
2DC6
100
AcDbEntity
  8
LJ
 62
     5
100
AcDbLine
 10
12306.941195
 20
32319.685574
 30
0.0
 11
12276.125529
 21
32328.59651
 31
0.0
  0
LINE
  5
2DC7
100
AcDbEntity
  8
LJ
 62
     5
100
AcDbLine
 10
12308.254246
 20
32324.582092
 30
0.0
 11
12383.725057
 21
32288.41005
 31
0.0
  0
LINE
  5
2DC8
100
AcDbEntity
  8
LJ
 62
     5
100
AcDbLine
 10
12342.774779
 20
32444.684311
 30
0.0
 11
12306.941195
 21
32319.685574
 31
0.0
  0
LINE
  5
2DC9
100
AcDbEntity
  8
LJ
 62
     5
100
AcDbLine
 10
15496.057355
 20
52796.155502
 30
0.0
 11
8600.78606
 21
54439.400489
 31
0.0
  0
LINE
  5
2DCA
100
AcDbEntity
  8
LJ
 62
     5
100
AcDbLine
 10
15474.969835
 20
52722.766172
 30
0.0
 11
8183.461208
 21
54460.428987
 31
0.0
  0
LINE
  5
2DCB
100
AcDbEntity
  8
LJ
 62
     5
100
AcDbLine
 10
7306.163197
 20
54532.72125
 30
0.0
 11
15507.288788
 21
52181.0581
 31
0.0
  0
LINE
  5
2DCC
100
AcDbEntity
  8
LJ
 62
     5
100
AcDbLine
 10
15192.804762
 20
51738.827689
 30
0.0
 11
8088.480285
 21
54129.16457
 31
0.0
  0
LINE
  5
2DCD
100
AcDbEntity
  8
LJ
 62
     5
100
AcDbLine
 10
14937.052465
 20
51744.409058
 30
0.0
 11
8070.651979
 21
54054.706346
 31
0.0
  0
CIRCLE
  5
2DCE
100
AcDbEntity
  8
LJ
 62
     5
100
AcDbCircle
 10
7728.854251
 20
54369.920842
 30
0.0
 40
287.5
  0
CIRCLE
  5
2DCF
100
AcDbEntity
  8
LJ
 62
     5
100
AcDbCircle
 10
7728.854251
 20
54369.920842
 30
0.0
 40
287.5
  0
POINT
  5
2DD0
100
AcDbEntity
  8
LJ
 62
     5
100
AcDbPoint
 10
7728.913223
 20
54369.911328
 30
0.0
  0
LINE
  5
2DD1
100
AcDbEntity
  8
LJ
 62
     5
100
AcDbLine
 10
7350.25386
 20
54592.120289
 30
0.0
 11
8204.113113
 21
54500.773095
 31
0.0
  0
LINE
  5
2DD2
100
AcDbEntity
  8
LJ
 62
     5
100
AcDbLine
 10
8070.651979
 20
54054.706346
 30
0.0
 11
7812.693528
 21
54007.94013
 31
0.0
  0
ARC
  5
2DD3
100
AcDbEntity
  8
LJ
 62
     5
100
AcDbCircle
 10
7755.780349
 20
54698.753375
 30
0.0
 40
32.5
100
AcDbArc
 50
353.893
 51
173.893
  0
LINE
  5
2DD4
100
AcDbEntity
  8
LJ
 62
     5
100
AcDbLine
 10
7602.702779
 20
54406.116642
 30
0.0
 11
7847.171646
 21
54335.987168
 31
0.0
  0
LINE
  5
2DD5
100
AcDbEntity
  8
LJ
 62
     5
100
AcDbLine
 10
7765.337388
 20
54497.014353
 30
0.0
 11
7702.494088
 21
54277.721103
 31
0.0
  0
LINE
  5
2DD6
100
AcDbEntity
  8
LJ
 62
     5
100
AcDbLine
 10
7350.25386
 20
54592.120289
 30
0.0
 11
7335.258599
 21
54451.662891
 31
0.0
  0
LINE
  5
2DD7
100
AcDbEntity
  8
LJ
 62
     5
100
AcDbLine
 10
7788.034454
 20
54695.35886
 30
0.0
 11
7772.206197
 21
54546.923465
 31
0.0
  0
LINE
  5
2DD8
100
AcDbEntity
  8
LJ
 62
     5
100
AcDbLine
 10
7723.414803
 20
54702.234959
 30
0.0
 11
7707.574359
 21
54553.898819
 31
0.0
  0
ARC
  5
2DD9
100
AcDbEntity
  8
LJ
 62
     5
100
AcDbCircle
 10
7739.952434
 20
54408.359889
 30
0.0
 40
407.0
100
AcDbArc
 50
173.893
 51
280.268
  0
LINE
  5
2DDA
100
AcDbEntity
  8
LJ
 62
     5
100
AcDbLine
 10
8208.086709
 20
54499.893382
 30
0.0
 11
8493.191086
 21
54606.735248
 31
0.0
  0
LINE
  5
2DDB
100
AcDbEntity
  8
LJ
 62
     5
100
AcDbLine
 10
8607.570195
 20
54518.718492
 30
0.0
 11
8600.568581
 21
54447.736118
 31
0.0
  0
ARC
  5
2DDC
100
AcDbEntity
  8
LJ
 62
     5
100
AcDbCircle
 10
8523.021349
 20
54527.076882
 30
0.0
 40
85.0
100
AcDbArc
 50
354.374
 51
110.54
  0
LINE
  5
2DDD
100
AcDbEntity
  8
LJ
 62
     5
100
AcDbLine
 10
8520.841109
 20
53891.674988
 30
0.0
 11
8445.13256
 21
53807.521167
 31
0.0
  0
LINE
  5
2DDE
100
AcDbEntity
  8
LJ
 62
     5
100
AcDbLine
 10
8520.841109
 20
53891.674988
 30
0.0
 11
8524.311757
 21
53901.974726
 31
0.0
  0
LINE
  5
2DDF
100
AcDbEntity
  8
LJ
 62
     5
100
AcDbLine
 10
8077.123802
 20
54132.998238
 30
0.0
 11
8088.614595
 21
54129.673834
 31
0.0
  0
LINE
  5
2DE0
100
AcDbEntity
  8
LJ
 62
     5
100
AcDbLine
 10
8088.480285
 20
54129.16457
 30
0.0
 11
8183.461208
 21
54460.428987
 31
0.0
  0
LINE
  5
2DE1
100
AcDbEntity
  8
LJ
 62
     5
100
AcDbLine
 10
8331.355527
 20
53955.457933
 30
0.0
 11
8340.771747
 21
53842.664738
 31
0.0
  0
LINE
  5
2DE2
100
AcDbEntity
  8
LJ
 62
     5
100
AcDbLine
 10
8331.355527
 20
53955.457933
 30
0.0
 11
8334.826174
 21
53965.757671
 31
0.0
  0
ARC
  5
2DE3
100
AcDbEntity
  8
LJ
 62
     5
100
AcDbCircle
 10
8400.604815
 20
53847.694042
 30
0.0
 40
60.0
100
AcDbArc
 50
184.806
 51
318.002
  0
LINE
  5
2DE4
100
AcDbEntity
  8
LJ
 62
     5
100
AcDbLine
 10
9393.814524
 20
54211.144966
 30
0.0
 11
9247.018209
 21
53699.138577
 31
0.0
  0
LINE
  5
2DE5
100
AcDbEntity
  8
LJ
 62
     5
100
AcDbLine
 10
10025.060126
 20
54060.652706
 30
0.0
 11
9271.608726
 21
53690.873803
 31
0.0
  0
LINE
  5
2DE6
100
AcDbEntity
  8
LJ
 62
     5
100
AcDbLine
 10
9862.115449
 20
53492.258017
 30
0.0
 11
9419.03022
 21
54205.173475
 31
0.0
  0
LINE
  5
2DE7
100
AcDbEntity
  8
LJ
 62
     5
100
AcDbLine
 10
15446.792777
 20
52906.795024
 30
0.0
 11
15480.835097
 21
52898.683276
 31
0.0
  0
LINE
  5
2DE8
100
AcDbEntity
  8
LJ
 62
     5
100
AcDbLine
 10
15171.72804
 20
51665.420044
 30
0.0
 11
14936.531818
 21
51744.546633
 31
0.0
  0
POINT
  5
2DE9
100
AcDbEntity
  8
LJ
 62
     5
100
AcDbPoint
 10
15430.073529
 20
52203.199485
 30
0.0
  0
LINE
  5
2DEA
100
AcDbEntity
  8
LJ
 62
     5
100
AcDbLine
 10
15409.894288
 20
52816.726875
 30
0.0
 11
15428.709087
 21
52895.70854
 31
0.0
  0
LINE
  5
2DEB
100
AcDbEntity
  8
LJ
 62
     5
100
AcDbLine
 10
15446.792777
 20
52906.795024
 30
0.0
 11
15428.721274
 21
52895.609285
 31
0.0
  0
LINE
  5
2DEC
100
AcDbEntity
  8
LJ
 62
     5
100
AcDbLine
 10
15386.514793
 20
52783.127184
 30
0.0
 11
14523.935465
 21
51923.598411
 31
0.0
  0
LINE
  5
2DED
100
AcDbEntity
  8
LJ
 62
     5
100
AcDbLine
 10
15085.860631
 20
51734.570879
 30
0.0
 11
14809.877945
 21
52920.476612
 31
0.0
  0
LINE
  5
2DEE
100
AcDbEntity
  8
LJ
 62
     5
100
AcDbLine
 10
15398.441795
 20
52740.966461
 30
0.0
 11
15118.322675
 21
51763.945965
 31
0.0
  0
LINE
  5
2DEF
100
AcDbEntity
  8
LJ
 62
     5
100
AcDbLine
 10
15480.835097
 20
52898.683276
 30
0.0
 11
15491.921582
 21
52880.599585
 31
0.0
  0
LINE
  5
2DF0
100
AcDbEntity
  8
LJ
 62
     5
100
AcDbLine
 10
15497.129517
 20
52709.357863
 30
0.0
 11
15546.190059
 21
52677.39862
 31
0.0
  0
LINE
  5
2DF1
100
AcDbEntity
  8
LJ
 62
     5
100
AcDbLine
 10
15521.97636
 20
52795.830485
 30
0.0
 11
15580.473762
 21
52796.968004
 31
0.0
  0
LINE
  5
2DF2
100
AcDbEntity
  8
LJ
 62
     5
100
AcDbLine
 10
15497.953479
 20
52802.754443
 30
0.0
 11
15521.97636
 21
52795.830485
 31
0.0
  0
ARC
  5
2DF3
100
AcDbEntity
  8
LJ
 62
     5
100
AcDbCircle
 10
15581.609395
 20
52731.921557
 30
0.0
 40
65.0
100
AcDbArc
 50
236.962
 51
91.0376
  0
LINE
  5
2DF4
100
AcDbEntity
  8
LJ
 62
     5
100
AcDbLine
 10
15690.199221
 20
52747.672734
 30
0.0
 11
15666.188527
 21
52754.497437
 31
0.0
  0
LINE
  5
2DF5
100
AcDbEntity
  8
LJ
 62
     5
100
AcDbLine
 10
15641.341684
 20
52668.024815
 30
0.0
 11
15582.832095
 21
52666.986551
 31
0.0
  0
LINE
  5
2DF6
100
AcDbEntity
  8
LJ
 62
     5
100
AcDbLine
 10
15665.364565
 20
52661.100857
 30
0.0
 11
15641.341684
 21
52668.024815
 31
0.0
  0
LINE
  5
2DF7
100
AcDbEntity
  8
LJ
 62
     5
100
AcDbLine
 10
15666.188527
 20
52754.497437
 30
0.0
 11
15617.127985
 21
52786.45668
 31
0.0
  0
LINE
  5
2DF8
100
AcDbEntity
  8
LJ
 62
     5
100
AcDbLine
 10
15690.199221
 20
52747.672734
 30
0.0
 11
15665.364565
 21
52661.100857
 31
0.0
  0
ARC
  5
2DF9
100
AcDbEntity
  8
LJ
 62
     5
100
AcDbCircle
 10
15581.708649
 20
52731.933743
 30
0.0
 40
64.9999
100
AcDbArc
 50
56.9624
 51
271.038
  0
LINE
  5
2DFA
100
AcDbEntity
  8
LJ
 62
     5
100
AcDbLine
 10
15473.106783
 20
52801.617921
 30
0.0
 11
15491.921582
 21
52880.599585
 31
0.0
  0
LINE
  5
2DFB
100
AcDbEntity
  8
LJ
 62
     5
100
AcDbLine
 10
15497.953479
 20
52802.754443
 30
0.0
 11
15473.106636
 21
52716.28182
 31
0.0
  0
LINE
  5
2DFC
100
AcDbEntity
  8
LJ
 62
     5
100
AcDbLine
 10
15473.106636
 20
52716.28182
 30
0.0
 11
15497.129517
 21
52709.357863
 31
0.0
  0
LINE
  5
2DFD
100
AcDbEntity
  8
LJ
 62
     5
100
AcDbLine
 10
15169.908139
 20
51658.938332
 30
0.0
 11
15193.888323
 21
51651.940705
 31
0.0
  0
LINE
  5
2DFE
100
AcDbEntity
  8
LJ
 62
     5
100
AcDbLine
 10
15194.662785
 20
51745.310579
 30
0.0
 11
15218.772734
 21
51738.498063
 31
0.0
  0
LINE
  5
2DFF
100
AcDbEntity
  8
LJ
 62
     5
100
AcDbLine
 10
15218.772734
 20
51738.498063
 30
0.0
 11
15277.282323
 21
51739.536327
 31
0.0
  0
LINE
  5
2E00
100
AcDbEntity
  8
LJ
 62
     5
100
AcDbLine
 10
15193.938078
 20
51651.926186
 30
0.0
 11
15242.986433
 21
51620.066197
 31
0.0
  0
LINE
  5
2E01
100
AcDbEntity
  8
LJ
 62
     5
100
AcDbLine
 10
15194.662785
 20
51745.310579
 30
0.0
 11
15169.908139
 21
51658.938332
 31
0.0
  0
ARC
  5
2E02
100
AcDbEntity
  8
LJ
 62
     5
100
AcDbCircle
 10
15278.405769
 20
51674.589134
 30
0.0
 40
65.0
100
AcDbArc
 50
236.962
 51
91.0376
  0
LINE
  5
2E03
100
AcDbEntity
  8
LJ
 62
     5
100
AcDbLine
 10
15362.984901
 20
51697.165015
 30
0.0
 11
15313.936546
 21
51729.025003
 31
0.0
  0
LINE
  5
2E04
100
AcDbEntity
  8
LJ
 62
     5
100
AcDbLine
 10
15387.007782
 20
51690.241057
 30
0.0
 11
15362.984901
 21
51697.165015
 31
0.0
  0
LINE
  5
2E05
100
AcDbEntity
  8
LJ
 62
     5
100
AcDbLine
 10
15338.150245
 20
51610.593138
 30
0.0
 11
15279.640656
 21
51609.554874
 31
0.0
  0
LINE
  5
2E06
100
AcDbEntity
  8
LJ
 62
     5
100
AcDbLine
 10
15362.160939
 20
51603.768435
 30
0.0
 11
15387.007782
 21
51690.241057
 31
0.0
  0
LINE
  5
2E07
100
AcDbEntity
  8
LJ
 62
     5
100
AcDbLine
 10
15362.160939
 20
51603.768435
 30
0.0
 11
15338.150245
 21
51610.593138
 31
0.0
  0
ARC
  5
2E08
100
AcDbEntity
  8
LJ
 62
     5
100
AcDbCircle
 10
15278.505023
 20
51674.601321
 30
0.0
 40
64.9999
100
AcDbArc
 50
56.9624
 51
271.038
  0
LINE
  5
2E09
100
AcDbEntity
  8
LJ
 62
     5
100
AcDbLine
 10
15445.761491
 20
52729.749673
 30
0.0
 11
15164.36764
 21
51748.341118
 31
0.0
  0
LINE
  5
2E0A
100
AcDbEntity
  8
LJ
 62
     5
100
AcDbLine
 10
15604.469259
 20
52811.601395
 30
0.0
 11
15253.308151
 21
51586.876709
 31
0.0
  0
LINE
  5
2E0B
100
AcDbEntity
  8
LJ
 62
     5
100
AcDbLine
 10
15605.331267
 20
52814.427512
 30
0.0
 11
15248.595814
 21
51570.2787
 31
0.0
  0
LINE
  5
2E0C
100
AcDbEntity
  8
LJ
 62
     5
100
AcDbLine
 10
23999.286052
 20
49746.052959
 30
0.0
 11
32845.870748
 21
47209.372395
 31
0.0
  0
LINE
  5
2E0D
100
AcDbEntity
  8
LJ
 62
     5
100
AcDbLine
 10
24015.40326
 20
49129.605111
 30
0.0
 11
32474.576435
 21
46703.99266
 31
0.0
  0
LINE
  5
2E0E
100
AcDbEntity
  8
LJ
 62
     5
100
AcDbLine
 10
24339.658682
 20
50260.333382
 30
0.0
 11
32798.756834
 21
47834.742443
 31
0.0
  0
LINE
  5
2E0F
100
AcDbEntity
  8
LJ
 62
     5
100
AcDbLine
 10
24776.854927
 20
50055.622249
 30
0.0
 11
32777.745401
 21
47761.33498
 31
0.0
  0
LINE
  5
2E10
100
AcDbEntity
  8
LJ
 62
     5
100
AcDbLine
 10
24494.686135
 20
49071.499019
 30
0.0
 11
32495.530746
 21
46777.320706
 31
0.0
  0
LINE
  5
2E11
100
AcDbEntity
  8
LJ
 62
     5
100
AcDbLine
 10
24256.688208
 20
50333.702642
 30
0.0
 11
23899.952755
 21
49089.55383
 31
0.0
  0
LINE
  5
2E12
100
AcDbEntity
  8
LJ
 62
     5
100
AcDbLine
 10
24352.2632
 20
50177.284385
 30
0.0
 11
24070.082221
 21
49193.260409
 31
0.0
  0
LINE
  5
2E13
100
AcDbEntity
  8
LJ
 62
     5
100
AcDbLine
 10
24131.83805
 20
49135.858688
 30
0.0
 11
25004.576913
 21
50029.983471
 31
0.0
  0
LINE
  5
2E14
100
AcDbEntity
  8
LJ
 62
     5
100
AcDbLine
 10
24390.651613
 20
50160.034176
 30
0.0
 11
24111.782852
 21
49187.600248
 31
0.0
  0
LINE
  5
2E15
100
AcDbEntity
  8
LJ
 62
     5
100
AcDbLine
 10
24255.8262
 20
50330.876524
 30
0.0
 11
23904.665092
 21
49106.151838
 31
0.0
  0
LINE
  5
2E16
100
AcDbEntity
  8
LJ
 62
     5
100
AcDbLine
 10
24435.029489
 20
50193.290365
 30
0.0
 11
24701.385474
 21
48972.551794
 31
0.0
  0
LINE
  5
2E17
100
AcDbEntity
  8
LJ
 62
     5
100
AcDbLine
 10
24777.905016
 20
50059.378219
 30
0.0
 11
24493.536791
 21
49067.730862
 31
0.0
  0
POINT
  5
2E18
100
AcDbEntity
  8
LJ
 62
     5
100
AcDbPoint
 10
24081.436869
 20
49722.496933
 30
0.0
  0
LINE
  5
2E19
100
AcDbEntity
  8
LJ
 62
     5
100
AcDbLine
 10
24118.639835
 20
49175.243801
 30
0.0
 11
24493.536791
 21
49067.730862
 31
0.0
  0
LINE
  5
2E1A
100
AcDbEntity
  8
LJ
 62
     5
100
AcDbLine
 10
24111.782852
 20
49187.600248
 30
0.0
 11
24118.639835
 21
49175.243801
 31
0.0
  0
ARC
  5
2E1B
100
AcDbEntity
  8
LJ
 62
     5
100
AcDbCircle
 10
23929.861964
 20
49193.876451
 30
0.0
 40
64.9999
100
AcDbArc
 50
56.9624
 51
271.038
  0
LINE
  5
2E1C
100
AcDbEntity
  8
LJ
 62
     5
100
AcDbLine
 10
24013.51788
 20
49123.043565
 30
0.0
 11
23989.507186
 21
49129.868267
 31
0.0
  0
LINE
  5
2E1D
100
AcDbEntity
  8
LJ
 62
     5
100
AcDbLine
 10
24013.51788
 20
49123.043565
 30
0.0
 11
24038.364723
 21
49209.516187
 31
0.0
  0
LINE
  5
2E1E
100
AcDbEntity
  8
LJ
 62
     5
100
AcDbLine
 10
23989.507186
 20
49129.868267
 30
0.0
 11
23930.997597
 21
49128.830003
 31
0.0
  0
LINE
  5
2E1F
100
AcDbEntity
  8
LJ
 62
     5
100
AcDbLine
 10
24038.364723
 20
49209.516187
 30
0.0
 11
24014.341842
 21
49216.440144
 31
0.0
  0
LINE
  5
2E20
100
AcDbEntity
  8
LJ
 62
     5
100
AcDbLine
 10
24014.341842
 20
49216.440144
 30
0.0
 11
23965.293487
 21
49248.300133
 31
0.0
  0
ARC
  5
2E21
100
AcDbEntity
  8
LJ
 62
     5
100
AcDbCircle
 10
23929.76271
 20
49193.864264
 30
0.0
 40
65.0
100
AcDbArc
 50
236.962
 51
91.0376
  0
LINE
  5
2E22
100
AcDbEntity
  8
LJ
 62
     5
100
AcDbLine
 10
23833.695559
 20
49221.361584
 30
0.0
 11
24015.925381
 21
49169.080115
 31
0.0
  0
LINE
  5
2E23
100
AcDbEntity
  8
LJ
 62
     5
100
AcDbLine
 10
23846.019726
 20
49264.585708
 30
0.0
 11
23821.265079
 21
49178.213461
 31
0.0
  0
LINE
  5
2E24
100
AcDbEntity
  8
LJ
 62
     5
100
AcDbLine
 10
23845.295019
 20
49171.201316
 30
0.0
 11
23894.343374
 21
49139.341327
 31
0.0
  0
LINE
  5
2E25
100
AcDbEntity
  8
LJ
 62
     5
100
AcDbLine
 10
23870.129675
 20
49257.773192
 30
0.0
 11
23928.639264
 21
49258.811457
 31
0.0
  0
LINE
  5
2E26
100
AcDbEntity
  8
LJ
 62
     5
100
AcDbLine
 10
23846.019726
 20
49264.585708
 30
0.0
 11
23870.129675
 21
49257.773192
 31
0.0
  0
LINE
  5
2E27
100
AcDbEntity
  8
LJ
 62
     5
100
AcDbLine
 10
23821.265079
 20
49178.213461
 30
0.0
 11
23845.295019
 21
49171.201316
 31
0.0
  0
LINE
  5
2E28
100
AcDbEntity
  8
LJ
 62
     5
100
AcDbLine
 10
24036.463957
 20
49202.901093
 30
0.0
 11
24115.921767
 21
49180.149115
 31
0.0
  0
LINE
  5
2E29
100
AcDbEntity
  8
LJ
 62
     5
100
AcDbLine
 10
24248.817257
 20
49062.770076
 30
0.0
 11
24251.389081
 21
49059.055817
 31
0.0
  0
LINE
  5
2E2A
100
AcDbEntity
  8
LJ
 62
     5
100
AcDbLine
 10
24403.107315
 20
50166.903346
 30
0.0
 11
24777.905016
 21
50059.378219
 31
0.0
  0
LINE
  5
2E2B
100
AcDbEntity
  8
LJ
 62
     5
100
AcDbLine
 10
24390.651613
 20
50160.034176
 30
0.0
 11
24403.107315
 21
50166.903346
 31
0.0
  0
LINE
  5
2E2C
100
AcDbEntity
  8
LJ
 62
     5
100
AcDbLine
 10
24149.31042
 20
50322.029572
 30
0.0
 11
24124.463577
 21
50235.55695
 31
0.0
  0
ARC
  5
2E2D
100
AcDbEntity
  8
LJ
 62
     5
100
AcDbCircle
 10
24233.06559
 20
50251.208873
 30
0.0
 40
64.9999
100
AcDbArc
 50
56.9624
 51
271.038
  0
LINE
  5
2E2E
100
AcDbEntity
  8
LJ
 62
     5
100
AcDbLine
 10
24341.556162
 20
50266.947864
 30
0.0
 11
24316.721506
 21
50180.375987
 31
0.0
  0
ARC
  5
2E2F
100
AcDbEntity
  8
LJ
 62
     5
100
AcDbCircle
 10
24232.966335
 20
50251.196686
 30
0.0
 40
65.0
100
AcDbArc
 50
236.962
 51
91.0376
  0
LINE
  5
2E30
100
AcDbEntity
  8
LJ
 62
     5
100
AcDbLine
 10
24124.463577
 20
50235.55695
 30
0.0
 11
24148.486458
 21
50228.632992
 31
0.0
  0
LINE
  5
2E31
100
AcDbEntity
  8
LJ
 62
     5
100
AcDbLine
 10
24316.721506
 20
50180.375987
 30
0.0
 11
24292.698625
 21
50187.299944
 31
0.0
  0
LINE
  5
2E32
100
AcDbEntity
  8
LJ
 62
     5
100
AcDbLine
 10
24292.698625
 20
50187.299944
 30
0.0
 11
24234.189036
 21
50186.26168
 31
0.0
  0
LINE
  5
2E33
100
AcDbEntity
  8
LJ
 62
     5
100
AcDbLine
 10
24148.486458
 20
50228.632992
 30
0.0
 11
24197.547
 21
50196.673749
 31
0.0
  0
LINE
  5
2E34
100
AcDbEntity
  8
LJ
 62
     5
100
AcDbLine
 10
24450.189613
 20
50295.917342
 30
0.0
 11
24432.698774
 21
50233.606835
 31
0.0
  0
LINE
  5
2E35
100
AcDbEntity
  8
LJ
 62
     5
100
AcDbLine
 10
24136.886998
 20
50278.793261
 30
0.0
 11
24313.786722
 21
50228.073859
 31
0.0
  0
LINE
  5
2E36
100
AcDbEntity
  8
LJ
 62
     5
100
AcDbLine
 10
24377.003136
 20
50311.399096
 30
0.0
 11
24360.642318
 21
50254.279453
 31
0.0
  0
LINE
  5
2E37
100
AcDbEntity
  8
LJ
 62
     5
100
AcDbLine
 10
24317.545468
 20
50273.772567
 30
0.0
 11
24268.484926
 21
50305.73181
 31
0.0
  0
LINE
  5
2E38
100
AcDbEntity
  8
LJ
 62
     5
100
AcDbLine
 10
24341.556162
 20
50266.947864
 30
0.0
 11
24317.545468
 21
50273.772567
 31
0.0
  0
LINE
  5
2E39
100
AcDbEntity
  8
LJ
 62
     5
100
AcDbLine
 10
24149.31042
 20
50322.029572
 30
0.0
 11
24173.333301
 21
50315.105615
 31
0.0
  0
LINE
  5
2E3A
100
AcDbEntity
  8
LJ
 62
     5
100
AcDbLine
 10
24173.333301
 20
50315.105615
 30
0.0
 11
24231.830703
 21
50316.243134
 31
0.0
  0
ARC
  5
2E3B
100
AcDbEntity
  8
LJ
 62
     5
100
AcDbCircle
 10
24413.037457
 20
50301.01316
 30
0.0
 40
37.5
100
AcDbArc
 50
352.19
 51
164.0
  0
LINE
  5
2E3C
100
AcDbEntity
  8
LJ
 62
     5
100
AcDbLine
 10
24318.6303
 20
50187.029911
 30
0.0
 11
24398.102746
 21
50164.173091
 31
0.0
  0
LINE
  5
2E3D
100
AcDbEntity
  8
LJ
 62
     5
100
AcDbLine
 10
32968.035832
 20
47699.614765
 30
0.0
 11
32944.012951
 21
47706.538723
 31
0.0
  0
LINE
  5
2E3E
100
AcDbEntity
  8
LJ
 62
     5
100
AcDbLine
 10
32992.870488
 20
47786.186642
 30
0.0
 11
32968.859794
 21
47793.011345
 31
0.0
  0
LINE
  5
2E3F
100
AcDbEntity
  8
LJ
 62
     5
100
AcDbLine
 10
32664.832206
 20
46642.282343
 30
0.0
 11
32640.821512
 21
46649.107046
 31
0.0
  0
LINE
  5
2E40
100
AcDbEntity
  8
LJ
 62
     5
100
AcDbLine
 10
32689.679049
 20
46728.754965
 30
0.0
 11
32665.656168
 21
46735.678923
 31
0.0
  0
POINT
  5
2E41
100
AcDbEntity
  8
LJ
 62
     5
100
AcDbPoint
 10
32732.800209
 20
47241.79438
 30
0.0
  0
LINE
  5
2E42
100
AcDbEntity
  8
LJ
 62
     5
100
AcDbLine
 10
32748.869856
 20
47769.627012
 30
0.0
 11
32466.688877
 21
46785.603036
 31
0.0
  0
LINE
  5
2E43
100
AcDbEntity
  8
LJ
 62
     5
100
AcDbLine
 10
32702.187525
 20
47783.03783
 30
0.0
 11
32420.006547
 21
46799.013854
 31
0.0
  0
LINE
  5
2E44
100
AcDbEntity
  8
LJ
 62
     5
100
AcDbLine
 10
32911.901611
 20
47866.316293
 30
0.0
 11
32548.092439
 21
46597.723207
 31
0.0
  0
LINE
  5
2E45
100
AcDbEntity
  8
LJ
 62
     5
100
AcDbLine
 10
32908.002534
 20
47852.941421
 30
0.0
 11
32551.267081
 21
46608.792608
 31
0.0
  0
LINE
  5
2E46
100
AcDbEntity
  8
LJ
 62
     5
100
AcDbLine
 10
32689.828703
 20
47826.253793
 30
0.0
 11
31817.189095
 21
46932.141198
 31
0.0
  0
LINE
  5
2E47
100
AcDbEntity
  8
LJ
 62
     5
100
AcDbLine
 10
32386.637264
 20
46768.822117
 30
0.0
 11
32120.380534
 21
47989.572875
 31
0.0
  0
ARC
  5
2E48
100
AcDbEntity
  8
LJ
 62
     5
100
AcDbCircle
 10
32581.176291
 20
46713.115229
 30
0.0
 40
64.9999
100
AcDbArc
 50
236.962
 51
91.0375
  0
LINE
  5
2E49
100
AcDbEntity
  8
LJ
 62
     5
100
AcDbLine
 10
32472.685719
 20
46697.376238
 30
0.0
 11
32497.42112
 21
46783.935928
 31
0.0
  0
ARC
  5
2E4A
100
AcDbEntity
  8
LJ
 62
     5
100
AcDbCircle
 10
32581.176291
 20
46713.115229
 30
0.0
 40
64.9999
100
AcDbArc
 50
56.9624
 51
271.038
  0
LINE
  5
2E4B
100
AcDbEntity
  8
LJ
 62
     5
100
AcDbLine
 10
32472.685719
 20
46697.376238
 30
0.0
 11
32496.696413
 21
46690.551536
 31
0.0
  0
LINE
  5
2E4C
100
AcDbEntity
  8
LJ
 62
     5
100
AcDbLine
 10
32496.696413
 20
46690.551536
 30
0.0
 11
32545.756955
 21
46658.592292
 31
0.0
  0
LINE
  5
2E4D
100
AcDbEntity
  8
LJ
 62
     5
100
AcDbLine
 10
32640.821512
 20
46649.107046
 30
0.0
 11
32582.311923
 21
46648.068782
 31
0.0
  0
LINE
  5
2E4E
100
AcDbEntity
  8
LJ
 62
     5
100
AcDbLine
 10
32665.656168
 20
46735.678923
 30
0.0
 11
32616.607813
 21
46767.538911
 31
0.0
  0
LINE
  5
2E4F
100
AcDbEntity
  8
LJ
 62
     5
100
AcDbLine
 10
32497.42112
 20
46783.935928
 30
0.0
 11
32521.543256
 21
46777.024158
 31
0.0
  0
LINE
  5
2E50
100
AcDbEntity
  8
LJ
 62
     5
100
AcDbLine
 10
32521.543256
 20
46777.024158
 30
0.0
 11
32580.052845
 21
46778.062422
 31
0.0
  0
ARC
  5
2E51
100
AcDbEntity
  8
LJ
 62
     5
100
AcDbCircle
 10
32884.379916
 20
47770.447652
 30
0.0
 40
64.9999
100
AcDbArc
 50
236.962
 51
91.0375
  0
LINE
  5
2E52
100
AcDbEntity
  8
LJ
 62
     5
100
AcDbLine
 10
32800.624746
 20
47841.268351
 30
0.0
 11
32775.877158
 21
47754.807915
 31
0.0
  0
ARC
  5
2E53
100
AcDbEntity
  8
LJ
 62
     5
100
AcDbCircle
 10
32884.379916
 20
47770.447652
 30
0.0
 40
64.9999
100
AcDbArc
 50
56.9624
 51
271.038
  0
LINE
  5
2E54
100
AcDbEntity
  8
LJ
 62
     5
100
AcDbLine
 10
32775.877158
 20
47754.807915
 30
0.0
 11
32799.900039
 21
47747.883958
 31
0.0
  0
LINE
  5
2E55
100
AcDbEntity
  8
LJ
 62
     5
100
AcDbLine
 10
32799.900039
 20
47747.883958
 30
0.0
 11
32848.948394
 21
47716.023969
 31
0.0
  0
LINE
  5
2E56
100
AcDbEntity
  8
LJ
 62
     5
100
AcDbLine
 10
32944.012951
 20
47706.538723
 30
0.0
 11
32885.503362
 21
47705.500459
 31
0.0
  0
LINE
  5
2E57
100
AcDbEntity
  8
LJ
 62
     5
100
AcDbLine
 10
32800.624746
 20
47841.268351
 30
0.0
 11
32824.734695
 21
47834.455835
 31
0.0
  0
LINE
  5
2E58
100
AcDbEntity
  8
LJ
 62
     5
100
AcDbLine
 10
32824.734695
 20
47834.455835
 30
0.0
 11
32883.244284
 21
47835.494099
 31
0.0
  0
LINE
  5
2E59
100
AcDbEntity
  8
LJ
 62
     5
100
AcDbLine
 10
32968.859794
 20
47793.011345
 30
0.0
 11
32919.799252
 21
47824.970588
 31
0.0
  0
LINE
  5
2E5A
100
AcDbEntity
  8
LJ
 62
     5
100
AcDbLine
 10
32664.832206
 20
46642.282343
 30
0.0
 11
32689.679049
 21
46728.754965
 31
0.0
  0
LINE
  5
2E5B
100
AcDbEntity
  8
LJ
 62
     5
100
AcDbLine
 10
32992.870488
 20
47786.186642
 30
0.0
 11
32968.035832
 21
47699.614765
 31
0.0
  0
LINE
  5
2E5C
100
AcDbEntity
  8
LJ
 62
     5
100
AcDbLine
 10
33056.082812
 20
47693.069306
 30
0.0
 11
33433.506618
 21
47595.337218
 31
0.0
  0
LINE
  5
2E5D
100
AcDbEntity
  8
LJ
 62
     5
100
AcDbLine
 10
32767.096355
 20
46688.160277
 30
0.0
 11
33139.689345
 21
46570.692352
 31
0.0
  0
POINT
  5
2E5E
100
AcDbEntity
  8
LJ
 62
     5
100
AcDbPoint
 10
32732.800209
 20
47241.79438
 30
0.0
  0
LINE
  5
2E5F
100
AcDbEntity
  8
LJ
 62
     5
100
AcDbLine
 10
32666.793454
 20
46648.901572
 30
0.0
 11
38174.785376
 21
44913.521098
 31
0.0
  0
LINE
  5
2E60
100
AcDbEntity
  8
LJ
 62
     5
100
AcDbLine
 10
32732.768341
 20
47241.803517
 30
0.0
 11
38500.398293
 21
45588.074145
 31
0.0
  0
LINE
  5
2E61
100
AcDbEntity
  8
LJ
 62
     5
100
AcDbLine
 10
32991.053361
 20
47779.645434
 30
0.0
 11
38581.755509
 21
46332.548636
 31
0.0
  0
LINE
  5
2E62
100
AcDbEntity
  8
LJ
 62
     5
100
AcDbLine
 10
33002.906967
 20
47697.824244
 30
0.0
 11
32720.238384
 21
46712.027631
 31
0.0
  0
LINE
  5
2E63
100
AcDbEntity
  8
LJ
 62
     5
100
AcDbLine
 10
32910.27318
 20
47860.648694
 30
0.0
 11
32545.901522
 21
46590.072275
 31
0.0
  0
LINE
  5
2E64
100
AcDbEntity
  8
LJ
 62
     5
100
AcDbLine
 10
33043.651485
 20
47686.001627
 30
0.0
 11
32760.557991
 21
46698.742328
 31
0.0
  0
ARC
  5
2E65
100
AcDbEntity
  8
LJ
 62
     5
100
AcDbCircle
 10
32581.160434
 20
46713.186933
 30
0.0
 40
64.9999
100
AcDbArc
 50
236.962
 51
91.0375
  0
LINE
  5
2E66
100
AcDbEntity
  8
LJ
 62
     5
100
AcDbLine
 10
32521.428145
 20
46777.083675
 30
0.0
 11
32580.036989
 21
46778.134126
 31
0.0
  0
LINE
  5
2E67
100
AcDbEntity
  8
LJ
 62
     5
100
AcDbLine
 10
32496.680557
 20
46690.62324
 30
0.0
 11
32545.741099
 21
46658.663997
 31
0.0
  0
ARC
  5
2E68
100
AcDbEntity
  8
LJ
 62
     5
100
AcDbCircle
 10
32581.160434
 20
46713.186933
 30
0.0
 40
65.0
100
AcDbArc
 50
56.9624
 51
271.038
  0
LINE
  5
2E69
100
AcDbEntity
  8
LJ
 62
     5
100
AcDbLine
 10
32496.782587
 20
46737.384224
 30
0.0
 11
32677.339026
 21
46685.602545
 31
0.0
  0
LINE
  5
2E6A
100
AcDbEntity
  8
LJ
 62
     5
100
AcDbLine
 10
32472.669863
 20
46697.447943
 30
0.0
 11
32497.405264
 21
46784.007633
 31
0.0
  0
LINE
  5
2E6B
100
AcDbEntity
  8
LJ
 62
     5
100
AcDbLine
 10
32472.669863
 20
46697.447943
 30
0.0
 11
32496.680557
 21
46690.62324
 31
0.0
  0
LINE
  5
2E6C
100
AcDbEntity
  8
LJ
 62
     5
100
AcDbLine
 10
32497.405264
 20
46784.007633
 30
0.0
 11
32521.5274
 21
46777.095862
 31
0.0
  0
LINE
  5
2E6D
100
AcDbEntity
  8
LJ
 62
     5
100
AcDbLine
 10
32760.207961
 20
46697.490338
 30
0.0
 11
32758.295864
 21
46690.90825
 31
0.0
  0
LINE
  5
2E6E
100
AcDbEntity
  8
LJ
 62
     5
100
AcDbLine
 10
32761.045596
 20
46700.514965
 30
0.0
 11
32767.839885
 21
46687.848567
 31
0.0
  0
LINE
  5
2E6F
100
AcDbEntity
  8
LJ
 62
     5
100
AcDbLine
 10
32758.295864
 20
46690.90825
 30
0.0
 11
32765.943619
 21
46688.522494
 31
0.0
  0
LINE
  5
2E70
100
AcDbEntity
  8
LJ
 62
     5
100
AcDbLine
 10
32664.915605
 20
46642.366234
 30
0.0
 11
32640.904911
 21
46649.190937
 31
0.0
  0
LINE
  5
2E71
100
AcDbEntity
  8
LJ
 62
     5
100
AcDbLine
 10
32664.915605
 20
46642.366234
 30
0.0
 11
32689.762448
 21
46728.838857
 31
0.0
  0
LINE
  5
2E72
100
AcDbEntity
  8
LJ
 62
     5
100
AcDbLine
 10
32640.904911
 20
46649.190937
 30
0.0
 11
32582.395322
 21
46648.152673
 31
0.0
  0
LINE
  5
2E73
100
AcDbEntity
  8
LJ
 62
     5
100
AcDbLine
 10
32665.739567
 20
46735.762814
 30
0.0
 11
32616.591957
 21
46767.610616
 31
0.0
  0
LINE
  5
2E74
100
AcDbEntity
  8
LJ
 62
     5
100
AcDbLine
 10
32689.762448
 20
46728.838857
 30
0.0
 11
32665.640312
 21
46735.750627
 31
0.0
  0
LINE
  5
2E75
100
AcDbEntity
  8
LJ
 62
     5
100
AcDbLine
 10
32687.879924
 20
46722.287249
 30
0.0
 11
32761.947556
 21
46698.912945
 31
0.0
  0
ARC
  5
2E76
100
AcDbEntity
  8
LJ
 62
     5
100
AcDbCircle
 10
32884.36406
 20
47770.519356
 30
0.0
 40
64.9999
100
AcDbArc
 50
236.962
 51
91.0375
  0
LINE
  5
2E77
100
AcDbEntity
  8
LJ
 62
     5
100
AcDbLine
 10
32799.884183
 20
47747.955662
 30
0.0
 11
32848.932537
 21
47716.095673
 31
0.0
  0
LINE
  5
2E78
100
AcDbEntity
  8
LJ
 62
     5
100
AcDbLine
 10
32824.718839
 20
47834.527539
 30
0.0
 11
32883.228428
 21
47835.565803
 31
0.0
  0
ARC
  5
2E79
100
AcDbEntity
  8
LJ
 62
     5
100
AcDbCircle
 10
32884.36406
 20
47770.519356
 30
0.0
 40
65.0
100
AcDbArc
 50
56.9624
 51
271.038
  0
LINE
  5
2E7A
100
AcDbEntity
  8
LJ
 62
     5
100
AcDbLine
 10
32800.928252
 20
47794.42931
 30
0.0
 11
32980.530465
 21
47743.034222
 31
0.0
  0
LINE
  5
2E7B
100
AcDbEntity
  8
LJ
 62
     5
100
AcDbLine
 10
32800.60889
 20
47841.340055
 30
0.0
 11
32824.718839
 21
47834.527539
 31
0.0
  0
LINE
  5
2E7C
100
AcDbEntity
  8
LJ
 62
     5
100
AcDbLine
 10
32775.861302
 20
47754.87962
 30
0.0
 11
32799.884183
 21
47747.955662
 31
0.0
  0
LINE
  5
2E7D
100
AcDbEntity
  8
LJ
 62
     5
100
AcDbLine
 10
32800.60889
 20
47841.340055
 30
0.0
 11
32775.861302
 21
47754.87962
 31
0.0
  0
LINE
  5
2E7E
100
AcDbEntity
  8
LJ
 62
     5
100
AcDbLine
 10
33043.651485
 20
47686.001627
 30
0.0
 11
33056.082812
 21
47693.069306
 31
0.0
  0
LINE
  5
2E7F
100
AcDbEntity
  8
LJ
 62
     5
100
AcDbLine
 10
32944.09635
 20
47706.622614
 30
0.0
 11
32885.586761
 21
47705.58435
 31
0.0
  0
LINE
  5
2E80
100
AcDbEntity
  8
LJ
 62
     5
100
AcDbLine
 10
32968.119231
 20
47699.698657
 30
0.0
 11
32992.953887
 21
47786.270534
 31
0.0
  0
LINE
  5
2E81
100
AcDbEntity
  8
LJ
 62
     5
100
AcDbLine
 10
32968.943193
 20
47793.095236
 30
0.0
 11
32919.783396
 21
47825.042293
 31
0.0
  0
LINE
  5
2E82
100
AcDbEntity
  8
LJ
 62
     5
100
AcDbLine
 10
32992.953887
 20
47786.270534
 30
0.0
 11
32968.943193
 21
47793.095236
 31
0.0
  0
LINE
  5
2E83
100
AcDbEntity
  8
LJ
 62
     5
100
AcDbLine
 10
32968.119231
 20
47699.698657
 30
0.0
 11
32944.09635
 21
47706.622614
 31
0.0
  0
LINE
  5
2E84
100
AcDbEntity
  8
LJ
 62
     5
100
AcDbLine
 10
32969.998393
 20
47706.249287
 30
0.0
 11
33045.166437
 21
47686.792146
 31
0.0
  0
LINE
  5
2E85
100
AcDbEntity
  8
LJ
 62
     5
100
AcDbLine
 10
37438.648239
 20
45185.478476
 30
0.0
 11
38444.412591
 21
46328.772255
 31
0.0
  0
LINE
  5
2E86
100
AcDbEntity
  8
LJ
 62
     5
100
AcDbLine
 10
37813.306577
 20
46492.077029
 30
0.0
 11
38060.467154
 21
44989.498332
 31
0.0
  0
LINE
  5
2E87
100
AcDbEntity
  8
LJ
 62
     5
100
AcDbLine
 10
33142.076861
 20
46579.146332
 30
0.0
 11
38195.801408
 21
44986.831585
 31
0.0
  0
LINE
  5
2E88
100
AcDbEntity
  8
LJ
 62
     5
100
AcDbLine
 10
33431.106916
 20
47586.982493
 30
0.0
 11
38560.739566
 21
46259.238462
 31
0.0
  0
LINE
  5
2E89
100
AcDbEntity
  8
LJ
 62
     5
100
AcDbLine
 10
33461.284433
 20
46438.60034
 30
0.0
 11
34412.276647
 21
47372.357219
 31
0.0
  0
LINE
  5
2E8A
100
AcDbEntity
  8
LJ
 62
     5
100
AcDbLine
 10
33776.274114
 20
47536.975045
 30
0.0
 11
34087.813545
 21
46241.183517
 31
0.0
  0
LINE
  5
2E8B
100
AcDbEntity
  8
LJ
 62
     5
100
AcDbLine
 10
33433.506618
 20
47595.337218
 30
0.0
 11
33139.689345
 21
46570.692352
 31
0.0
  0
LINE
  5
2E8C
100
AcDbEntity
  8
LJ
 62
     5
100
AcDbLine
 10
38521.941108
 20
46269.277137
 30
0.0
 11
38157.656519
 21
44998.81216
 31
0.0
  0
LINE
  5
2E8D
100
AcDbEntity
  8
LJ
 62
     5
100
AcDbLine
 10
38466.789093
 20
46283.562277
 30
0.0
 11
38103.25507
 21
45016.010485
 31
0.0
  0
LINE
  5
2E8E
100
AcDbEntity
  8
LJ
 62
     5
100
AcDbLine
 10
38719.812611
 20
46353.82179
 30
0.0
 11
38266.575334
 21
44773.103627
 31
0.0
  0
POINT
  5
2E8F
100
AcDbEntity
  8
LJ
 62
     5
100
AcDbPoint
 10
38500.261984
 20
45588.113228
 30
0.0
  0
ARC
  5
2E90
100
AcDbEntity
  8
LJ
 62
     5
100
AcDbCircle
 10
38307.370271
 20
44915.133952
 30
0.0
 40
74.9999
100
AcDbArc
 50
244.403
 51
83.5975
  0
ARC
  5
2E91
100
AcDbEntity
  8
LJ
 62
     5
100
AcDbCircle
 10
38307.370271
 20
44915.133952
 30
0.0
 40
75.0
100
AcDbArc
 50
64.4019
 51
263.598
  0
LINE
  5
2E92
100
AcDbEntity
  8
LJ
 62
     5
100
AcDbLine
 10
38382.141765
 20
44831.32158
 30
0.0
 11
38298.984243
 21
44840.656811
 31
0.0
  0
LINE
  5
2E93
100
AcDbEntity
  8
LJ
 62
     5
100
AcDbLine
 10
38199.502737
 20
44883.653557
 30
0.0
 11
38274.973548
 21
44847.481514
 31
0.0
  0
LINE
  5
2E94
100
AcDbEntity
  8
LJ
 62
     5
100
AcDbLine
 10
38232.586589
 20
44999.045579
 30
0.0
 11
38315.744111
 21
44989.710348
 31
0.0
  0
LINE
  5
2E95
100
AcDbEntity
  8
LJ
 62
     5
100
AcDbLine
 10
38185.296906
 20
44950.117715
 30
0.0
 11
38410.540156
 21
44885.586959
 31
0.0
  0
LINE
  5
2E96
100
AcDbEntity
  8
LJ
 62
     5
100
AcDbLine
 10
38234.011083
 20
45003.85503
 30
0.0
 11
38198.177499
 21
44878.856293
 31
0.0
  0
LINE
  5
2E97
100
AcDbEntity
  8
LJ
 62
     5
100
AcDbLine
 10
38234.011083
 20
45003.85503
 30
0.0
 11
38203.207605
 21
45012.666711
 31
0.0
  0
LINE
  5
2E98
100
AcDbEntity
  8
LJ
 62
     5
100
AcDbLine
 10
38198.177499
 20
44878.856293
 30
0.0
 11
38167.37402
 21
44887.667974
 31
0.0
  0
LINE
  5
2E99
100
AcDbEntity
  8
LJ
 62
     5
100
AcDbLine
 10
38203.207605
 20
45012.666711
 30
0.0
 11
38167.37402
 21
44887.667974
 31
0.0
  0
LINE
  5
2E9A
100
AcDbEntity
  8
LJ
 62
     5
100
AcDbLine
 10
38380.717271
 20
44826.512129
 30
0.0
 11
38416.550855
 21
44951.510866
 31
0.0
  0
LINE
  5
2E9B
100
AcDbEntity
  8
LJ
 62
     5
100
AcDbLine
 10
38411.52075
 20
44817.700448
 30
0.0
 11
38447.354334
 21
44942.699185
 31
0.0
  0
LINE
  5
2E9C
100
AcDbEntity
  8
LJ
 62
     5
100
AcDbLine
 10
38416.550855
 20
44951.510866
 30
0.0
 11
38447.354334
 21
44942.699185
 31
0.0
  0
LINE
  5
2E9D
100
AcDbEntity
  8
LJ
 62
     5
100
AcDbLine
 10
38380.717271
 20
44826.512129
 30
0.0
 11
38411.52075
 21
44817.700448
 31
0.0
  0
LINE
  5
2E9E
100
AcDbEntity
  8
LJ
 62
     5
100
AcDbLine
 10
38415.237804
 20
44946.614348
 30
0.0
 11
38339.766993
 21
44982.78639
 31
0.0
  0
LINE
  5
2E9F
100
AcDbEntity
  8
LJ
 62
     5
100
AcDbLine
 10
38618.555566
 20
46344.814522
 30
0.0
 11
38701.613834
 21
46335.467104
 31
0.0
  0
LINE
  5
2EA0
100
AcDbEntity
  8
LJ
 62
     5
100
AcDbLine
 10
38585.471714
 20
46229.4225
 30
0.0
 11
38660.942525
 21
46193.250457
 31
0.0
  0
ARC
  5
2EA1
100
AcDbEntity
  8
LJ
 62
     5
100
AcDbCircle
 10
38693.339247
 20
46260.902895
 30
0.0
 40
74.9999
100
AcDbArc
 50
244.403
 51
83.5975
  0
LINE
  5
2EA2
100
AcDbEntity
  8
LJ
 62
     5
100
AcDbLine
 10
38571.265883
 20
46295.886658
 30
0.0
 11
38804.132514
 21
46229.168656
 31
0.0
  0
ARC
  5
2EA3
100
AcDbEntity
  8
LJ
 62
     5
100
AcDbCircle
 10
38693.227806
 20
46260.989963
 30
0.0
 40
75.0
100
AcDbArc
 50
64.4019
 51
263.598
  0
ARC
  5
2EA4
100
AcDbEntity
  8
LJ
 62
     5
100
AcDbCircle
 10
38529.717174
 20
46399.59618
 30
0.0
 40
30.0
100
AcDbArc
 50
356.114
 51
151.886
  0
LINE
  5
2EA5
100
AcDbEntity
  8
LJ
 62
     5
100
AcDbLine
 10
38529.641384
 20
46279.592454
 30
0.0
 11
38526.31698
 21
46268.10166
 31
0.0
  0
LINE
  5
2EA6
100
AcDbEntity
  8
LJ
 62
     5
100
AcDbLine
 10
38555.657791
 20
46339.308168
 30
0.0
 11
38559.592686
 21
46397.521625
 31
0.0
  0
LINE
  5
2EA7
100
AcDbEntity
  8
LJ
 62
     5
100
AcDbLine
 10
38475.431173
 20
46361.697892
 30
0.0
 11
38503.192199
 21
46413.769242
 31
0.0
  0
LINE
  5
2EA8
100
AcDbEntity
  8
LJ
 62
     5
100
AcDbLine
 10
38525.253325
 20
46280.867185
 30
0.0
 11
38521.941108
 21
46269.277137
 31
0.0
  0
LINE
  5
2EA9
100
AcDbEntity
  8
LJ
 62
     5
100
AcDbLine
 10
38589.176581
 20
46358.435654
 30
0.0
 11
38553.342997
 21
46233.436917
 31
0.0
  0
LINE
  5
2EAA
100
AcDbEntity
  8
LJ
 62
     5
100
AcDbLine
 10
38619.880805
 20
46349.611786
 30
0.0
 11
38589.176581
 21
46358.435654
 31
0.0
  0
LINE
  5
2EAB
100
AcDbEntity
  8
LJ
 62
     5
100
AcDbLine
 10
38584.047221
 20
46224.613049
 30
0.0
 11
38553.342997
 21
46233.436917
 31
0.0
  0
LINE
  5
2EAC
100
AcDbEntity
  8
LJ
 62
     5
100
AcDbLine
 10
38619.880805
 20
46349.611786
 30
0.0
 11
38584.047221
 21
46224.613049
 31
0.0
  0
LINE
  5
2EAD
100
AcDbEntity
  8
LJ
 62
     5
100
AcDbLine
 10
38766.586993
 20
46172.268886
 30
0.0
 11
38802.420577
 21
46297.267623
 31
0.0
  0
LINE
  5
2EAE
100
AcDbEntity
  8
LJ
 62
     5
100
AcDbLine
 10
38797.390472
 20
46163.457204
 30
0.0
 11
38833.224056
 21
46288.455941
 31
0.0
  0
LINE
  5
2EAF
100
AcDbEntity
  8
LJ
 62
     5
100
AcDbLine
 10
38802.420577
 20
46297.267623
 30
0.0
 11
38833.224056
 21
46288.455941
 31
0.0
  0
LINE
  5
2EB0
100
AcDbEntity
  8
LJ
 62
     5
100
AcDbLine
 10
38766.586993
 20
46172.268886
 30
0.0
 11
38797.390472
 21
46163.457204
 31
0.0
  0
LINE
  5
2EB1
100
AcDbEntity
  8
LJ
 62
     5
100
AcDbLine
 10
38768.011487
 20
46177.078337
 30
0.0
 11
38684.853965
 21
46186.413568
 31
0.0
  0
LINE
  5
2EB2
100
AcDbEntity
  8
LJ
 62
     5
100
AcDbLine
 10
38801.107526
 20
46292.371104
 30
0.0
 11
38725.636715
 21
46328.543147
 31
0.0
  0
LINE
  5
2EB3
100
AcDbEntity
  8
SUPORT2
 62
     5
100
AcDbLine
 10
50012.978837
 20
30511.706179
 30
0.0
 11
50366.948977
 21
28252.755015
 31
0.0
  0
LINE
  5
2EB4
100
AcDbEntity
  8
SUPORT2
 62
     5
100
AcDbLine
 10
50160.774623
 20
30537.179607
 30
0.0
 11
51071.179237
 21
25695.405486
 31
0.0
  0
LINE
  5
2EB5
100
AcDbEntity
  8
SUPORT2
 62
     5
100
AcDbLine
 10
55716.876908
 20
24428.83823
 30
0.0
 11
58968.131428
 21
27037.804754
 31
0.0
  0
LINE
  5
2EB6
100
AcDbEntity
  8
SUPORT2
 62
     5
100
AcDbLine
 10
55014.548406
 20
28791.42076
 30
0.0
 11
58789.573717
 21
27312.579996
 31
0.0
  0
LINE
  5
2EB7
100
AcDbEntity
  8
SUPORT2
 62
     5
100
AcDbLine
 10
55039.852222
 20
28867.451851
 30
0.0
 11
58818.772168
 21
27387.113817
 31
0.0
  0
LINE
  5
2EB8
100
AcDbEntity
  8
SUPORT2
 62
     5
100
AcDbLine
 10
55908.849681
 20
24198.214502
 30
0.0
 11
59063.8612
 21
26922.329645
 31
0.0
  0
LINE
  5
2EB9
100
AcDbEntity
  8
SUPORT2
 62
     5
100
AcDbLine
 10
55915.270164
 20
24190.510775
 30
0.0
 11
55710.587549
 21
24436.488979
 31
0.0
  0
LINE
  5
2EBA
100
AcDbEntity
  8
SUPORT2
 62
     5
100
AcDbLine
 10
55906.012844
 20
24182.887651
 30
0.0
 11
55701.330229
 21
24428.865855
 31
0.0
  0
LINE
  5
2EBB
100
AcDbEntity
  8
SUPORT2
 62
     5
100
AcDbLine
 10
51073.960826
 20
25679.638979
 30
0.0
 11
51769.09484
 21
21203.736992
 31
0.0
  0
LINE
  5
2EBC
100
AcDbEntity
  8
SUPORT2
 62
     5
100
AcDbLine
 10
50778.277202
 20
25628.653049
 30
0.0
 11
51621.299054
 21
21178.263564
 31
0.0
  0
LINE
  5
2EBD
100
AcDbEntity
  8
SUPORT2
 62
     5
100
AcDbLine
 10
55707.750711
 20
24421.162128
 30
0.0
 11
52066.681935
 21
21292.467151
 31
0.0
  0
LINE
  5
2EBE
100
AcDbEntity
  8
SUPORT2
 62
     5
100
AcDbLine
 10
55899.592361
 20
24190.591377
 30
0.0
 11
52162.648785
 21
21177.201311
 31
0.0
  0
ARC
  5
2EBF
100
AcDbEntity
  8
SUPORT2
 62
     5
100
AcDbCircle
 10
51741.220054
 20
20923.899743
 30
0.0
 40
80.0
100
AcDbArc
 50
190.894
 51
311.209
  0
POINT
  5
2EC0
100
AcDbEntity
  8
SUPORT2
  6
CONTINUOUS
 62
     5
100
AcDbPoint
 10
51741.207707
 20
20923.863865
 30
0.0
  0
LINE
  5
2EC1
100
AcDbEntity
  8
SUPORT2
 62
     5
100
AcDbLine
 10
51935.139888
 20
21175.468775
 30
0.0
 11
51827.837168
 21
21156.971846
 31
0.0
  0
ARC
  5
2EC2
100
AcDbEntity
  8
SUPORT2
 62
     5
100
AcDbCircle
 10
51948.732604
 20
21096.611067
 30
0.0
 40
84.9999
100
AcDbArc
 50
129.777
 51
309.777
  0
LINE
  5
2EC3
100
AcDbEntity
  8
SUPORT2
 62
     5
100
AcDbLine
 10
51935.139888
 20
21175.468775
 30
0.0
 11
51783.494525
 21
21149.339023
 31
0.0
  0
LINE
  5
2EC4
100
AcDbEntity
  8
SUPORT2
 62
     5
100
AcDbLine
 10
51792.413721
 20
20862.41496
 30
0.0
 11
51999.92627
 21
21035.126285
 31
0.0
  0
LINE
  5
2EC5
100
AcDbEntity
  8
SUPORT2
 62
     5
100
AcDbLine
 10
51774.074191
 20
21204.546969
 30
0.0
 11
51616.358776
 21
21177.361537
 31
0.0
  0
LINE
  5
2EC6
100
AcDbEntity
  8
SUPORT2
 62
     5
100
AcDbLine
 10
51774.074191
 20
21204.546969
 30
0.0
 11
51783.494525
 21
21149.339023
 31
0.0
  0
LINE
  5
2EC7
100
AcDbEntity
  8
SUPORT2
 62
     5
100
AcDbLine
 10
51750.642844
 20
20884.5537
 30
0.0
 11
51777.516828
 21
20905.955545
 31
0.0
  0
LINE
  5
2EC8
100
AcDbEntity
  8
SUPORT2
 62
     5
100
AcDbLine
 10
51616.358776
 20
21177.361537
 30
0.0
 11
51662.362346
 21
20910.307026
 31
0.0
  0
LINE
  5
2EC9
100
AcDbEntity
  8
SUPORT2
  6
DASHED
 62
     5
100
AcDbLine
 10
51777.516828
 20
20905.955545
 30
0.0
 11
51820.612815
 21
20940.32684
 31
0.0
  0
LINE
  5
2ECA
100
AcDbEntity
  8
SUPORT2
  6
CENTER
 62
     5
100
AcDbLine
 10
51831.941716
 20
20939.486599
 30
0.0
 11
51638.174186
 21
20906.12338
 31
0.0
  0
ARC
  5
2ECB
100
AcDbEntity
  8
SUPORT2
 62
     5
100
AcDbCircle
 10
51948.732604
 20
21096.611067
 30
0.0
 40
80.0
100
AcDbArc
 50
309.776
 51
99.7768
  0
LINE
  5
2ECC
100
AcDbEntity
  8
SUPORT2
 62
     5
100
AcDbLine
 10
52060.261452
 20
21300.170877
 30
0.0
 11
51894.282671
 21
21161.928177
 31
0.0
  0
LINE
  5
2ECD
100
AcDbEntity
  8
SUPORT2
 62
     5
100
AcDbLine
 10
52169.069268
 20
21169.497585
 30
0.0
 11
52003.051414
 21
21031.346935
 31
0.0
  0
LINE
  5
2ECE
100
AcDbEntity
  8
SUPORT2
 62
     5
100
AcDbLine
 10
52169.069268
 20
21169.497585
 30
0.0
 11
52060.261452
 21
21300.170877
 31
0.0
  0
LINE
  5
2ECF
100
AcDbEntity
  8
SUPORT2
 62
     5
100
AcDbLine
 10
55915.270164
 20
24190.510775
 30
0.0
 11
55906.012844
 21
24182.887651
 31
0.0
  0
LINE
  5
2ED0
100
AcDbEntity
  8
SUPORT2
  6
DASHED
 62
     5
100
AcDbLine
 10
55896.100766
 20
24213.661027
 30
0.0
 11
55900.651725
 21
24208.31418
 31
0.0
  0
ARC
  5
2ED1
100
AcDbEntity
  8
SUPORT2
  6
DASHED
 62
     5
100
AcDbCircle
 10
55709.498471
 20
24031.357452
 30
0.0
 40
2.0
100
AcDbArc
 50
219.777
 51
309.777
  0
ARC
  5
2ED2
100
AcDbEntity
  8
SUPORT2
 62
     5
100
AcDbCircle
 10
55709.498471
 20
24031.357452
 30
0.0
 40
4.3
100
AcDbArc
 50
219.777
 51
309.777
  0
ARC
  5
2ED3
100
AcDbEntity
  8
SUPORT2
  6
DASHED
 62
     5
100
AcDbCircle
 10
55709.498471
 20
24031.357452
 30
0.0
 40
2.0
100
AcDbArc
 50
219.777
 51
309.777
  0
ARC
  5
2ED4
100
AcDbEntity
  8
SUPORT2
 62
     5
100
AcDbCircle
 10
55709.498471
 20
24031.357452
 30
0.0
 40
4.3
100
AcDbArc
 50
219.777
 51
309.777
  0
LINE
  5
2ED5
100
AcDbEntity
  8
SUPORT2
 62
     5
100
AcDbLine
 10
50366.874278
 20
28252.755853
 30
0.0
 11
50775.587665
 21
25644.45863
 31
0.0
  0
LINE
  5
2ED6
100
AcDbEntity
  8
SUPORT2
 62
     5
100
AcDbLine
 10
55710.587549
 20
24436.488979
 30
0.0
 11
55701.330229
 21
24428.865855
 31
0.0
  0
LINE
  5
2ED7
100
AcDbEntity
  8
SUPORT2
  6
DASHED
 62
     5
100
AcDbLine
 10
55729.717874
 20
24413.430778
 30
0.0
 11
55725.351016
 21
24418.855771
 31
0.0
  0
LINE
  5
2ED8
100
AcDbEntity
  8
SUPORT2
 62
     5
100
AcDbLine
 10
57231.667328
 20
27922.87279
 30
0.0
 11
57229.481351
 21
27917.273548
 31
0.0
  0
LINE
  5
2ED9
100
AcDbEntity
  8
SUPORT2
 62
     5
100
AcDbLine
 10
57138.592102
 20
27959.409927
 30
0.0
 11
57136.406126
 21
27953.810685
 31
0.0
  0
LINE
  5
2EDA
100
AcDbEntity
  8
SUPORT2
 62
     5
100
AcDbLine
 10
57136.406126
 20
27953.810685
 30
0.0
 11
57229.481351
 21
27917.273548
 31
0.0
  0
LINE
  5
2EDB
100
AcDbEntity
  8
SUPORT2
 62
     5
100
AcDbLine
 10
59088.857403
 20
26917.187679
 30
0.0
 11
59076.847194
 21
26907.092389
 31
0.0
  0
LINE
  5
2EDC
100
AcDbEntity
  8
SUPORT2
 62
     5
100
AcDbLine
 10
59088.857403
 20
26917.187679
 30
0.0
 11
58967.155644
 21
27063.137299
 31
0.0
  0
ARC
  5
2EDD
100
AcDbEntity
  8
SUPORT2
 62
     5
100
AcDbCircle
 10
59249.997749
 20
27174.831675
 30
0.0
 40
272.5
100
AcDbArc
 50
333.79499
 51
133.642
  0
LINE
  5
2EDE
100
AcDbEntity
  8
SUPORT2
 62
     5
100
AcDbLine
 10
59278.839571
 20
27332.103412
 30
0.0
 11
59027.874314
 21
27378.208614
 31
0.0
  0
ARC
  5
2EDF
100
AcDbEntity
  8
SUPORT2
 62
     5
100
AcDbCircle
 10
59007.592635
 20
27269.871669
 30
0.0
 40
110.0
100
AcDbArc
 50
79.5989
 51
200.374
  0
ARC
  5
2EE0
100
AcDbEntity
  8
SUPORT2
 62
     5
100
AcDbCircle
 10
58753.075652
 20
27219.41272
 30
0.0
 40
100.0
100
AcDbArc
 50
47.2797
 51
68.6072
  0
LINE
  5
2EE1
100
AcDbEntity
  8
SUPORT2
 62
     5
100
AcDbLine
 10
58820.743472
 20
27292.894053
 30
0.0
 11
58913.700096
 21
27206.985811
 31
0.0
  0
LINE
  5
2EE2
100
AcDbEntity
  8
SUPORT2
 62
     5
100
AcDbLine
 10
58967.155644
 20
27063.137299
 30
0.0
 11
58955.145435
 21
27053.04201
 31
0.0
  0
LINE
  5
2EE3
100
AcDbEntity
  8
SUPORT2
  6
DASHED
 62
     5
100
AcDbLine
 10
59016.476103
 20
26980.21654
 30
0.0
 11
59010.332478
 21
26984.452796
 31
0.0
  0
LINE
  5
2EE4
100
AcDbEntity
  8
SUPORT2
 62
     5
100
AcDbLine
 10
58967.155644
 20
27063.137299
 30
0.0
 11
58904.383446
 21
27231.49377
 31
0.0
  0
LINE
  5
2EE5
100
AcDbEntity
  8
SUPORT2
 62
     5
100
AcDbLine
 10
59076.847194
 20
26907.092389
 30
0.0
 11
58955.145435
 21
27053.04201
 31
0.0
  0
LINE
  5
2EE6
100
AcDbEntity
  8
SUPORT2
 62
     5
100
AcDbLine
 10
58855.356879
 20
27380.264082
 30
0.0
 11
59007.632354
 21
27379.828199
 31
0.0
  0
ARC
  5
2EE7
100
AcDbEntity
  8
SUPORT2
 62
     5
100
AcDbCircle
 10
58855.309305
 20
27480.189042
 30
0.0
 40
100.0
100
AcDbArc
 50
248.607
 51
269.935
  0
ARC
  5
2EE8
100
AcDbEntity
  8
SUPORT2
 62
     5
100
AcDbCircle
 10
59249.997749
 20
27174.831675
 30
0.0
 40
160.0
100
AcDbArc
 50
327.864265
 51
79.5988
  0
ARC
  5
2EE9
100
AcDbEntity
  8
SUPORT2
 62
     5
100
AcDbCircle
 10
59249.997749
 20
27174.831675
 30
0.0
 40
160.0
100
AcDbArc
 50
296.202
 51
327.864265
  0
ARC
  5
2EEA
100
AcDbEntity
  8
SUPORT2
 62
     5
100
AcDbCircle
 10
59249.997749
 20
27174.831675
 30
0.0
 40
272.5
100
AcDbArc
 50
242.158
 51
333.79499
  0
LINE
  5
2EEB
100
AcDbEntity
  8
SUPORT2
 62
     5
100
AcDbLine
 10
59088.857403
 20
26917.187679
 30
0.0
 11
59320.721127
 21
27031.25158
 31
0.0
  0
LINE
  5
2EEC
100
AcDbEntity
  8
SUPORT2
 62
     5
100
AcDbLine
 10
50475.420308
 20
30569.598626
 30
0.0
 11
54560.527054
 21
28969.36629
 31
0.0
  0
LINE
  5
2EED
100
AcDbEntity
  8
SUPORT2
 62
     5
100
AcDbLine
 10
50504.618759
 20
30644.132446
 30
0.0
 11
54589.672528
 21
29043.768988
 31
0.0
  0
LINE
  5
2EEE
100
AcDbEntity
  8
SUPORT2
 62
     5
100
AcDbLine
 10
54978.147795
 20
28798.348641
 30
0.0
 11
54825.227968
 21
28798.511012
 31
0.0
  0
ARC
  5
2EEF
100
AcDbEntity
  8
SUPORT2
 62
     5
100
AcDbCircle
 10
54825.359737
 20
28908.506614
 30
0.0
 40
110.0
100
AcDbArc
 50
47.2785
 51
269.936
  0
CIRCLE
  5
2EF0
100
AcDbEntity
  8
SUPORT2
 62
     5
100
AcDbCircle
 10
54825.359737
 20
28908.506614
 30
0.0
 40
97.9999
  0
LINE
  5
2EF1
100
AcDbEntity
  8
SUPORT2
  6
DASHED
 62
     5
100
AcDbLine
 10
54861.155191
 20
28999.74611
 30
0.0
 11
54814.617578
 21
29018.014678
 31
0.0
  0
LINE
  5
2EF2
100
AcDbEntity
  8
SUPORT2
 62
     5
100
AcDbLine
 10
54818.989531
 20
29029.213161
 30
0.0
 11
54865.527144
 21
29010.944593
 31
0.0
  0
ARC
  5
2EF3
100
AcDbEntity
  8
SUPORT2
 62
     5
100
AcDbCircle
 10
54778.822124
 20
28926.775183
 30
0.0
 40
110.0
100
AcDbArc
 50
68.6072
 51
89.9343
  0
LINE
  5
2EF4
100
AcDbEntity
  8
SUPORT2
  6
CENTER
 62
     5
100
AcDbLine
 10
54868.772668
 20
29019.166306
 30
0.0
 11
54782.515652
 21
28799.066108
 31
0.0
  0
ARC
  5
2EF5
100
AcDbEntity
  8
SUPORT2
 62
     5
100
AcDbCircle
 10
54626.170592
 20
29136.936264
 30
0.0
 40
100.0
100
AcDbArc
 50
248.607
 51
269.934
  0
ARC
  5
2EF6
100
AcDbEntity
  8
SUPORT2
 62
     5
100
AcDbCircle
 10
54524.02899
 20
28876.199014
 30
0.0
 40
100.0
100
AcDbArc
 50
47.2802
 51
68.6072
  0
ARC
  5
2EF7
100
AcDbEntity
  8
SUPORT2
 62
     5
100
AcDbCircle
 10
54778.822124
 20
28926.775183
 30
0.0
 40
110.0
100
AcDbArc
 50
227.28
 51
248.607
  0
LINE
  5
2EF8
100
AcDbEntity
  8
SUPORT2
 62
     5
100
AcDbLine
 10
54591.919983
 20
28949.666443
 30
0.0
 11
54704.195607
 21
28845.885981
 31
0.0
  0
LINE
  5
2EF9
100
AcDbEntity
  8
SUPORT2
 62
     5
100
AcDbLine
 10
54626.034065
 20
29036.933157
 30
0.0
 11
54778.953893
 21
29036.770786
 31
0.0
  0
LINE
  5
2EFA
100
AcDbEntity
  8
SUPORT2
 62
     5
100
AcDbLine
 10
54738.746767
 20
28824.376278
 30
0.0
 11
54785.28438
 21
28806.107709
 31
0.0
  0
LINE
  5
2EFB
100
AcDbEntity
  8
SUPORT2
 62
     5
100
AcDbLine
 10
55012.393001
 20
28885.562377
 30
0.0
 11
54900.025326
 21
28989.303766
 31
0.0
  0
ARC
  5
2EFC
100
AcDbEntity
  8
SUPORT2
 62
     5
100
AcDbCircle
 10
55080.191944
 20
28958.990733
 30
0.0
 40
100.0
100
AcDbArc
 50
227.279
 51
248.607
  0
ARC
  5
2EFD
100
AcDbEntity
  8
SUPORT2
 62
     5
100
AcDbCircle
 10
54978.103319
 20
28698.384607
 30
0.0
 40
100.0
100
AcDbArc
 50
68.6072
 51
89.936
  0
LINE
  5
2EFE
100
AcDbEntity
  8
SUPORT2
 62
     5
100
AcDbLine
 10
50007.999486
 20
30510.896202
 30
0.0
 11
50074.122578
 21
30127.341843
 31
0.0
  0
CIRCLE
  5
2EFF
100
AcDbEntity
  8
SUPORT2
  6
CENTER
 62
     5
100
AcDbCircle
 10
50196.744013
 20
29886.834704
 30
0.0
 40
250.0
  0
CIRCLE
  5
2F00
100
AcDbEntity
  8
SUPORT2
  6
CENTER
 62
     5
100
AcDbCircle
 10
50290.141948
 20
29344.84243
 30
0.0
 40
250.0
  0
CIRCLE
  5
2F01
100
AcDbEntity
  8
SUPORT2
  6
CENTER
 62
     5
100
AcDbCircle
 10
50290.141948
 20
29344.84243
 30
0.0
 40
250.0
  0
LINE
  5
2F02
100
AcDbEntity
  8
SUPORT2
 62
     5
100
AcDbLine
 10
50068.328283
 20
30865.019636
 30
0.0
 11
50341.91329
 21
30785.008205
 31
0.0
  0
ARC
  5
2F03
100
AcDbEntity
  8
SUPORT2
 62
     5
100
AcDbCircle
 10
50043.054393
 20
30778.680824
 30
0.0
 40
89.9999
100
AcDbArc
 50
73.6994
 51
188.128
  0
LINE
  5
2F04
100
AcDbEntity
  8
SUPORT2
 62
     5
100
AcDbLine
 10
50305.696771
 20
30578.38047
 30
0.0
 11
49978.71721
 21
30522.040634
 31
0.0
  0
LINE
  5
2F05
100
AcDbEntity
  8
SUPORT2
 62
     5
100
AcDbLine
 10
50192.346712
 20
30542.650733
 30
0.0
 11
49981.459725
 21
30506.366177
 31
0.0
  0
LINE
  5
2F06
100
AcDbEntity
  8
SUPORT2
 62
     5
100
AcDbLine
 10
49963.64917
 20
30698.044538
 30
0.0
 11
49953.944582
 21
30765.950878
 31
0.0
  0
LINE
  5
2F07
100
AcDbEntity
  8
SUPORT2
 62
     5
100
AcDbLine
 10
49978.71721
 20
30522.040634
 30
0.0
 11
49981.459725
 21
30506.366177
 31
0.0
  0
LINE
  5
2F08
100
AcDbEntity
  8
SUPORT2
 62
     5
100
AcDbLine
 10
49988.63684
 20
30523.752638
 30
0.0
 11
49984.143247
 21
30549.438775
 31
0.0
  0
LINE
  5
2F09
100
AcDbEntity
  8
SUPORT2
  6
DASHED
 62
     5
100
AcDbLine
 10
49988.63684
 20
30523.752638
 30
0.0
 11
49963.64917
 21
30698.044538
 31
0.0
  0
CIRCLE
  5
2F0A
100
AcDbEntity
  8
SUPORT2
 62
     5
100
AcDbCircle
 10
50043.054393
 20
30778.680824
 30
0.0
 40
35.0
  0
ARC
  5
2F0B
100
AcDbEntity
  8
SUPORT2
 62
     5
100
AcDbCircle
 10
50541.116824
 20
30737.299722
 30
0.0
 40
100.0
100
AcDbArc
 50
227.279
 51
248.607
  0
ARC
  5
2F0C
100
AcDbEntity
  8
SUPORT2
 62
     5
100
AcDbCircle
 10
50438.975222
 20
30476.562473
 30
0.0
 40
100.0
100
AcDbArc
 50
68.6072
 51
89.9356
  0
LINE
  5
2F0D
100
AcDbEntity
  8
SUPORT2
 62
     5
100
AcDbLine
 10
50189.657174
 20
30558.456314
 30
0.0
 11
50192.346712
 21
30542.650733
 31
0.0
  0
LINE
  5
2F0E
100
AcDbEntity
  8
SUPORT2
 62
     5
100
AcDbLine
 10
50473.264903
 20
30663.740244
 30
0.0
 11
50341.91329
 21
30785.008205
 31
0.0
  0
LINE
  5
2F0F
100
AcDbEntity
  8
SUPORT2
 62
     5
100
AcDbLine
 10
50439.111748
 20
30576.56558
 30
0.0
 11
50286.191921
 21
30576.727951
 31
0.0
  0
POINT
  5
2F10
100
AcDbEntity
  8
SUPORTL
 62
     5
100
AcDbPoint
 10
50673.904585
 20
20657.709056
 30
0.0
  0
ARC
  5
2F11
100
AcDbEntity
  8
SUPORTL
 62
     5
100
AcDbCircle
 10
52564.632937
 20
19067.879934
 30
0.0
 40
150.0
100
AcDbArc
 50
230.058
 51
19.1874
  0
POINT
  5
2F12
100
AcDbEntity
  8
0
  6
CONTINUOUS
 62
     5
100
AcDbPoint
 10
51497.305689
 20
18801.806569
 30
0.0
  0
LINE
  5
2F13
100
AcDbEntity
  8
SUPORTL
 62
     5
100
AcDbLine
 10
52752.909022
 20
19114.875313
 30
0.0
 11
51362.886036
 21
18768.290736
 31
0.0
  0
LINE
  5
2F14
100
AcDbEntity
  8
SUPORTL
 62
     5
100
AcDbLine
 10
52242.378357
 20
19142.160657
 30
0.0
 11
51599.614118
 21
18981.93309
 31
0.0
  0
LINE
  5
2F15
100
AcDbEntity
  8
SUPORTL
 62
     5
100
AcDbLine
 10
52232.844891
 20
19150.057683
 30
0.0
 11
51595.553602
 21
18991.207366
 31
0.0
  0
LINE
  5
2F16
100
AcDbEntity
  8
SUPORTL
 62
     5
100
AcDbLine
 10
51221.072233
 20
20016.814286
 30
0.0
 11
52094.595045
 21
19285.39365
 31
0.0
  0
LINE
  5
2F17
100
AcDbEntity
  8
SUPORTL
 62
     5
100
AcDbLine
 10
50966.073224
 20
20576.009163
 30
0.0
 11
51710.124945
 21
20980.900975
 31
0.0
  0
LINE
  5
2F18
100
AcDbEntity
  8
SUPORTL
 62
     5
100
AcDbLine
 10
50754.112506
 20
20753.497335
 30
0.0
 11
52264.74653
 21
19488.547517
 31
0.0
  0
LINE
  5
2F19
100
AcDbEntity
  8
SUPORTL
 62
     5
100
AcDbLine
 10
51150.143121
 20
19991.380623
 30
0.0
 11
51497.052895
 21
19182.827406
 31
0.0
  0
LINE
  5
2F1A
100
AcDbEntity
  8
SUPORTL
 62
     5
100
AcDbLine
 10
50888.295481
 20
19878.931243
 30
0.0
 11
51235.142465
 21
19070.486005
 31
0.0
  0
LINE
  5
2F1B
100
AcDbEntity
  8
SUPORTL
 62
     5
100
AcDbLine
 10
51490.106411
 20
20137.198631
 30
0.0
 11
50874.502481
 21
19873.106885
 31
0.0
  0
LINE
  5
2F1C
100
AcDbEntity
  8
SUPORTL
 62
     5
100
AcDbLine
 10
50558.936945
 20
20608.430108
 30
0.0
 11
50874.502481
 21
19873.106885
 31
0.0
  0
ARC
  5
2F1D
100
AcDbEntity
  8
SUPORTL
 62
     5
100
AcDbCircle
 10
50673.888497
 20
20657.706477
 30
0.0
 40
125.0
100
AcDbArc
 50
50.0581
 51
203.221
  0
LINE
  5
2F1E
100
AcDbEntity
  8
SUPORTL
 62
     5
100
AcDbLine
 10
51289.916215
 20
18904.714836
 30
0.0
 11
51422.275205
 21
18700.624078
 31
0.0
  0
LINE
  5
2F1F
100
AcDbEntity
  8
SUPORTL
 62
     5
100
AcDbLine
 10
51235.142465
 20
19070.486005
 30
0.0
 11
51221.326292
 21
19064.547194
 31
0.0
  0
LINE
  5
2F20
100
AcDbEntity
  8
SUPORTL
 62
     5
100
AcDbLine
 10
51221.326292
 20
19064.547194
 30
0.0
 11
51289.916215
 21
18904.714836
 31
0.0
  0
ARC
  5
2F21
100
AcDbEntity
  8
SUPORTL
 62
     5
100
AcDbCircle
 10
51593.000815
 20
18753.524609
 30
0.0
 40
10.0
100
AcDbArc
 50
205.9
 51
284.0
  0
ARC
  5
2F22
100
AcDbEntity
  8
SUPORTL
 62
     5
100
AcDbCircle
 10
51440.602762
 20
18715.468292
 30
0.0
 40
10.0
100
AcDbArc
 50
284.0
 51
5.717
  0
LINE
  5
2F23
100
AcDbEntity
  8
SUPORTL
 62
     5
100
AcDbLine
 10
51583.973796
 20
18749.091447
 30
0.0
 11
51546.744666
 21
18825.826328
 31
0.0
  0
LINE
  5
2F24
100
AcDbEntity
  8
SUPORTL
 62
     5
100
AcDbLine
 10
51450.552597
 20
18716.488476
 30
0.0
 11
51442.565259
 21
18796.310042
 31
0.0
  0
LINE
  5
2F25
100
AcDbEntity
  8
SUPORTL
 62
     5
100
AcDbLine
 10
51443.000324
 20
18705.788328
 30
0.0
 11
51422.37446
 21
18700.636265
 31
0.0
  0
LINE
  5
2F26
100
AcDbEntity
  8
SUPORTL
 62
     5
100
AcDbLine
 10
51616.719023
 20
18749.082017
 30
0.0
 11
51595.398377
 21
18743.844645
 31
0.0
  0
LINE
  5
2F27
100
AcDbEntity
  8
SUPORTL
 62
     5
100
AcDbLine
 10
51597.117302
 20
18991.600866
 30
0.0
 11
51599.614118
 21
18981.93309
 31
0.0
  0
ARC
  5
2F28
100
AcDbEntity
  8
SUPORTL
 62
     5
100
AcDbCircle
 10
51497.30154
 20
18801.821801
 30
0.0
 40
55.0
100
AcDbArc
 50
25.9
 51
185.717
  0
LINE
  5
2F29
100
AcDbEntity
  8
SUPORTL
 62
     5
100
AcDbLine
 10
51599.614118
 20
18981.93309
 30
0.0
 11
51616.719023
 21
18749.082017
 31
0.0
  0
LINE
  5
2F2A
100
AcDbEntity
  8
SUPORTL
 62
     5
100
AcDbLine
 10
51472.07054
 20
18903.101841
 30
0.0
 11
51521.339853
 21
18705.332115
 31
0.0
  0
LINE
  5
2F2B
100
AcDbEntity
  8
SUPORTL
 62
     5
100
AcDbLine
 10
51510.847
 20
19188.756731
 30
0.0
 11
51497.052895
 21
19182.827406
 31
0.0
  0
LINE
  5
2F2C
100
AcDbEntity
  8
SUPORTL
 62
     5
100
AcDbLine
 10
51510.847
 20
19188.756731
 30
0.0
 11
51599.614118
 21
18981.93309
 31
0.0
  0
LINE
  5
2F2D
100
AcDbEntity
  8
SUPORTL
 62
     5
100
AcDbLine
 10
51680.560038
 20
19977.723972
 30
0.0
 11
51805.637517
 21
20915.25169
 31
0.0
  0
ARC
  5
2F2E
100
AcDbEntity
  8
SUPORTL
 62
     5
100
AcDbCircle
 10
51741.207707
 20
20923.863865
 30
0.0
 40
65.0
100
AcDbArc
 50
352.407
 51
118.547
  0
LINE
  5
2F2F
100
AcDbEntity
  8
SUPORTL
 62
     5
100
AcDbLine
 10
51716.627892
 20
21022.302082
 30
0.0
 11
51759.479332
 21
20850.544101
 31
0.0
  0
CIRCLE
  5
2F30
100
AcDbEntity
  8
SUPORTL
 62
     5
100
AcDbCircle
 10
51741.207707
 20
20923.863865
 30
0.0
 40
30.25
  0
LINE
  5
2F31
100
AcDbEntity
  8
SUPORTL
 62
     5
100
AcDbLine
 10
51830.859252
 20
20946.1558
 30
0.0
 11
51669.650153
 21
20906.010113
 31
0.0
  0
CIRCLE
  5
2F32
100
AcDbEntity
  8
SUPORTL
 62
     5
100
AcDbCircle
 10
51741.207707
 20
20923.863865
 30
0.0
 40
30.0
  0
ARC
  5
2F33
100
AcDbEntity
  8
SUPORTL
 62
     5
100
AcDbCircle
 10
52336.767835
 20
19550.910601
 30
0.0
 40
55.0
100
AcDbArc
 50
256.552
 51
320.058
  0
LINE
  5
2F34
100
AcDbEntity
  8
SUPORTL
 62
     5
100
AcDbLine
 10
52280.808325
 20
19507.769284
 30
0.0
 11
52323.98722
 21
19497.454583
 31
0.0
  0
LINE
  5
2F35
100
AcDbEntity
  8
SUPORTL
 62
     5
100
AcDbLine
 10
52280.808325
 20
19507.769284
 30
0.0
 11
52264.74653
 21
19488.547517
 31
0.0
  0
LINE
  5
2F36
100
AcDbEntity
  8
SUPORTL
 62
     5
100
AcDbLine
 10
52084.955172
 20
19273.857244
 30
0.0
 11
52468.329299
 21
18952.886328
 31
0.0
  0
LINE
  5
2F37
100
AcDbEntity
  8
SUPORTL
 62
     5
100
AcDbLine
 10
52094.595045
 20
19285.39365
 30
0.0
 11
52084.955172
 21
19273.857244
 31
0.0
  0
LINE
  5
2F38
100
AcDbEntity
  8
SUPORTL
 62
     5
100
AcDbLine
 10
52467.610192
 20
19663.596215
 30
0.0
 11
52510.449445
 21
19491.937488
 31
0.0
  0
LINE
  5
2F39
100
AcDbEntity
  8
SUPORTL
 62
     5
100
AcDbLine
 10
52544.175306
 20
19583.228103
 30
0.0
 11
52706.276944
 21
19117.209693
 31
0.0
  0
CIRCLE
  5
2F3A
100
AcDbEntity
  8
SUPORTL
 62
     5
100
AcDbCircle
 10
52492.190007
 20
19565.157997
 30
0.0
 40
25.0
  0
CIRCLE
  5
2F3B
100
AcDbEntity
  8
SUPORTL
 62
     5
100
AcDbCircle
 10
52492.190007
 20
19565.157997
 30
0.0
 40
27.5
  0
ARC
  5
2F3C
100
AcDbEntity
  8
SUPORTL
 62
     5
100
AcDbCircle
 10
52492.190007
 20
19565.157997
 30
0.0
 40
55.0
100
AcDbArc
 50
19.1874
 51
140.058
  0
LINE
  5
2F3D
100
AcDbEntity
  8
SUPORTL
 62
     5
100
AcDbLine
 10
52581.841552
 20
19587.449933
 30
0.0
 11
52420.632453
 21
19547.304246
 31
0.0
  0
LINE
  5
2F3E
100
AcDbEntity
  8
SUPORTL
 62
     5
100
AcDbLine
 10
52449.971124
 20
19600.476065
 30
0.0
 11
52378.986717
 21
19515.592533
 31
0.0
  0
CIRCLE
  5
2F3F
100
AcDbEntity
  8
SUPORTL
 62
     5
100
AcDbCircle
 10
52564.632937
 20
19067.879934
 30
0.0
 40
45.0
  0
LINE
  5
2F40
100
AcDbEntity
  8
SUPORTL
 62
     5
100
AcDbLine
 10
52524.48725
 20
19229.089034
 30
0.0
 11
52599.798937
 21
18926.713357
 31
0.0
  0
LINE
  5
2F41
100
AcDbEntity
  8
LJ
 62
     5
100
AcDbLine
 10
76521.731407
 20
34474.306965
 30
0.0
 11
71867.366469
 21
35238.921248
 31
0.0
  0
LINE
  5
2F42
100
AcDbEntity
  8
LJ
 62
     5
100
AcDbLine
 10
76689.857485
 20
34549.659362
 30
0.0
 11
71895.571953
 21
35337.199238
 31
0.0
  0
LINE
  5
2F43
100
AcDbEntity
  8
LJ
 62
     5
100
AcDbLine
 10
71783.992292
 20
36044.223732
 30
0.0
 11
77089.644951
 21
34522.880274
 31
0.0
  0
LINE
  5
2F44
100
AcDbEntity
  8
LJ
 62
     5
100
AcDbLine
 10
72253.313913
 20
36584.650599
 30
0.0
 11
76736.40712
 21
34711.960236
 31
0.0
  0
LINE
  5
2F45
100
AcDbEntity
  8
LJ
 62
     5
100
AcDbLine
 10
72281.4643
 20
36682.999364
 30
0.0
 11
76633.740037
 21
34864.978174
 31
0.0
  0
LINE
  5
2F46
100
AcDbEntity
  8
LJ
 62
     5
100
AcDbLine
 10
72270.666843
 20
36714.228554
 30
0.0
 11
72388.357446
 21
36762.531473
 31
0.0
  0
LINE
  5
2F47
100
AcDbEntity
  8
LJ
 62
     5
100
AcDbLine
 10
72493.728739
 20
36593.613918
 30
0.0
 11
72292.912933
 21
36677.465645
 31
0.0
  0
POINT
  5
2F48
100
AcDbEntity
  8
LJ
 62
     5
100
AcDbPoint
 10
71952.349699
 20
35995.948909
 30
0.0
  0
LINE
  5
2F49
100
AcDbEntity
  8
LJ
 62
     5
100
AcDbLine
 10
72180.751104
 20
36792.554411
 30
0.0
 11
71724.62652
 21
35201.708886
 31
0.0
  0
LINE
  5
2F4A
100
AcDbEntity
  8
LJ
 62
     5
100
AcDbLine
 10
72280.939158
 20
36573.128697
 30
0.0
 11
71925.203288
 21
35332.32665
 31
0.0
  0
LINE
  5
2F4B
100
AcDbEntity
  8
LJ
 62
     5
100
AcDbLine
 10
72171.864542
 20
36761.540236
 30
0.0
 11
71732.725955
 21
35230.107639
 31
0.0
  0
LINE
  5
2F4C
100
AcDbEntity
  8
LJ
 62
     5
100
AcDbLine
 10
71856.346317
 20
35227.654889
 30
0.0
 11
71863.548307
 21
35225.617403
 31
0.0
  0
LINE
  5
2F4D
100
AcDbEntity
  8
LJ
 62
     5
100
AcDbLine
 10
71868.689854
 20
35359.340754
 30
0.0
 11
71899.394078
 21
35350.516886
 31
0.0
  0
LINE
  5
2F4E
100
AcDbEntity
  8
LJ
 62
     5
100
AcDbLine
 10
71832.844083
 20
35234.441272
 30
0.0
 11
71863.548307
 21
35225.617403
 31
0.0
  0
LINE
  5
2F4F
100
AcDbEntity
  8
LJ
 62
     5
100
AcDbLine
 10
71832.844083
 20
35234.441272
 30
0.0
 11
71746.70905
 21
35249.153716
 31
0.0
  0
LINE
  5
2F50
100
AcDbEntity
  8
LJ
 62
     5
100
AcDbLine
 10
71868.689854
 20
35359.340754
 30
0.0
 11
71787.854016
 21
35392.436031
 31
0.0
  0
LINE
  5
2F51
100
AcDbEntity
  8
LJ
 62
     5
100
AcDbLine
 10
71899.394078
 20
35350.516886
 30
0.0
 11
71863.548307
 21
35225.617403
 31
0.0
  0
LINE
  5
2F52
100
AcDbEntity
  8
LJ
 62
     5
100
AcDbLine
 10
71650.205056
 20
35286.773248
 30
0.0
 11
71619.401578
 21
35295.584929
 31
0.0
  0
LINE
  5
2F53
100
AcDbEntity
  8
LJ
 62
     5
100
AcDbLine
 10
71686.03864
 20
35411.771985
 30
0.0
 11
71650.205056
 21
35286.773248
 31
0.0
  0
LINE
  5
2F54
100
AcDbEntity
  8
LJ
 62
     5
100
AcDbLine
 10
71655.235162
 20
35420.583666
 30
0.0
 11
71619.401578
 21
35295.584929
 31
0.0
  0
LINE
  5
2F55
100
AcDbEntity
  8
LJ
 62
     5
100
AcDbLine
 10
71686.03864
 20
35411.771985
 30
0.0
 11
71655.235162
 21
35420.583666
 31
0.0
  0
ARC
  5
2F56
100
AcDbEntity
  8
LJ
 62
     5
100
AcDbCircle
 10
71759.397828
 20
35323.050908
 30
0.0
 40
75.0
100
AcDbArc
 50
244.402
 51
83.598
  0
LINE
  5
2F57
100
AcDbEntity
  8
LJ
 62
     5
100
AcDbLine
 10
71684.614147
 20
35406.962534
 30
0.0
 11
71767.771669
 21
35397.627303
 31
0.0
  0
LINE
  5
2F58
100
AcDbEntity
  8
LJ
 62
     5
100
AcDbLine
 10
71651.530294
 20
35291.570512
 30
0.0
 11
71727.001106
 21
35255.398469
 31
0.0
  0
ARC
  5
2F59
100
AcDbEntity
  8
LJ
 62
     5
100
AcDbCircle
 10
71759.397828
 20
35323.050908
 30
0.0
 40
74.9999
100
AcDbArc
 50
67.7211
 51
260.279
  0
LINE
  5
2F5A
100
AcDbEntity
  8
LJ
 62
     5
100
AcDbLine
 10
71660.083167
 20
35351.559997
 30
0.0
 11
71881.471192
 21
35288.067145
 31
0.0
  0
LINE
  5
2F5B
100
AcDbEntity
  8
LJ
 62
     5
100
AcDbLine
 10
72043.175089
 20
35969.956593
 30
0.0
 11
71756.268595
 21
36052.223147
 31
0.0
  0
LINE
  5
2F5C
100
AcDbEntity
  8
LJ
 62
     5
100
AcDbLine
 10
72266.86363
 20
36704.996243
 30
0.0
 11
72284.708351
 21
36697.515205
 31
0.0
  0
LINE
  5
2F5D
100
AcDbEntity
  8
LJ
 62
     5
100
AcDbLine
 10
72284.708351
 20
36697.515205
 30
0.0
 11
72292.912933
 21
36677.465645
 31
0.0
  0
LINE
  5
2F5E
100
AcDbEntity
  8
LJ
 62
     5
100
AcDbLine
 10
72270.666843
 20
36714.228554
 30
0.0
 11
72266.86363
 21
36704.996243
 31
0.0
  0
LINE
  5
2F5F
100
AcDbEntity
  8
LJ
 62
     5
100
AcDbLine
 10
72254.559576
 20
36705.09751
 30
0.0
 11
72285.2638
 21
36696.273642
 31
0.0
  0
LINE
  5
2F60
100
AcDbEntity
  8
LJ
 62
     5
100
AcDbLine
 10
72285.2638
 20
36696.273642
 30
0.0
 11
72249.517283
 21
36571.386347
 31
0.0
  0
LINE
  5
2F61
100
AcDbEntity
  8
LJ
 62
     5
100
AcDbLine
 10
72254.559576
 20
36705.09751
 30
0.0
 11
72173.723738
 21
36738.192787
 31
0.0
  0
LINE
  5
2F62
100
AcDbEntity
  8
LJ
 62
     5
100
AcDbLine
 10
72218.713805
 20
36580.198028
 30
0.0
 11
72249.517283
 21
36571.386347
 31
0.0
  0
LINE
  5
2F63
100
AcDbEntity
  8
LJ
 62
     5
100
AcDbLine
 10
72218.713805
 20
36580.198028
 30
0.0
 11
72132.678026
 21
36594.922659
 31
0.0
  0
LINE
  5
2F64
100
AcDbEntity
  8
LJ
 62
     5
100
AcDbLine
 10
72036.074778
 20
36632.530004
 30
0.0
 11
72005.2713
 21
36641.341686
 31
0.0
  0
LINE
  5
2F65
100
AcDbEntity
  8
LJ
 62
     5
100
AcDbLine
 10
72071.908362
 20
36757.528741
 30
0.0
 11
72041.104884
 21
36766.340423
 31
0.0
  0
LINE
  5
2F66
100
AcDbEntity
  8
LJ
 62
     5
100
AcDbLine
 10
72041.104884
 20
36766.340423
 30
0.0
 11
72005.2713
 21
36641.341686
 31
0.0
  0
LINE
  5
2F67
100
AcDbEntity
  8
LJ
 62
     5
100
AcDbLine
 10
72071.908362
 20
36757.528741
 30
0.0
 11
72036.074778
 21
36632.530004
 31
0.0
  0
ARC
  5
2F68
100
AcDbEntity
  8
LJ
 62
     5
100
AcDbCircle
 10
72145.26755
 20
36668.807664
 30
0.0
 40
75.0
100
AcDbArc
 50
244.402
 51
83.598
  0
LINE
  5
2F69
100
AcDbEntity
  8
LJ
 62
     5
100
AcDbLine
 10
72037.499271
 20
36637.339455
 30
0.0
 11
72112.870828
 21
36601.155226
 31
0.0
  0
LINE
  5
2F6A
100
AcDbEntity
  8
LJ
 62
     5
100
AcDbLine
 10
72070.483869
 20
36752.71929
 30
0.0
 11
72153.641391
 21
36743.38406
 31
0.0
  0
ARC
  5
2F6B
100
AcDbEntity
  8
LJ
 62
     5
100
AcDbCircle
 10
72145.26755
 20
36668.807664
 30
0.0
 40
74.9999
100
AcDbArc
 50
67.7211
 51
260.279
  0
LINE
  5
2F6C
100
AcDbEntity
  8
LJ
 62
     5
100
AcDbLine
 10
72711.77513
 20
36448.203219
 30
0.0
 11
72356.727133
 21
35210.004406
 31
0.0
  0
LINE
  5
2F6D
100
AcDbEntity
  8
LJ
 62
     5
100
AcDbLine
 10
72520.828797
 20
35183.102848
 30
0.0
 11
73321.459338
 21
36193.506563
 31
0.0
  0
LINE
  5
2F6E
100
AcDbEntity
  8
LJ
 62
     5
100
AcDbLine
 10
72865.227896
 20
36384.126791
 30
0.0
 11
73008.743971
 21
35102.866682
 31
0.0
  0
LINE
  5
2F6F
100
AcDbEntity
  8
LJ
 62
     5
100
AcDbLine
 10
72333.9283
 20
36551.021667
 30
0.0
 11
71981.854677
 21
35323.061658
 31
0.0
  0
LINE
  5
2F70
100
AcDbEntity
  8
LJ
 62
     5
100
AcDbLine
 10
72965.273607
 20
35161.506066
 30
0.0
 11
72965.83961
 21
35165.101847
 31
0.0
  0
LINE
  5
2F71
100
AcDbEntity
  8
LJ
 62
     5
100
AcDbLine
 10
72886.304002
 20
35174.478789
 30
0.0
 11
72886.96926
 21
35178.086757
 31
0.0
  0
LINE
  5
2F72
100
AcDbEntity
  8
LJ
 62
     5
100
AcDbLine
 10
72965.83961
 20
35165.101847
 30
0.0
 11
72886.96926
 21
35178.086757
 31
0.0
  0
LINE
  5
2F73
100
AcDbEntity
  8
LJ
 62
     5
100
AcDbLine
 10
72697.664253
 20
36399.016908
 30
0.0
 11
72658.506265
 21
36262.527378
 31
0.0
  0
ARC
  5
2F74
100
AcDbEntity
  8
LJ
 62
     5
100
AcDbCircle
 10
72702.870508
 20
36545.342077
 30
0.0
 40
39.9999
100
AcDbArc
 50
219.673
 51
274.983
  0
ARC
  5
2F75
100
AcDbEntity
  8
LJ
 62
     5
100
AcDbCircle
 10
72520.760434
 20
36658.18959
 30
0.0
 40
60.0
100
AcDbArc
 50
155.969
 51
247.328
  0
LINE
  5
2F76
100
AcDbEntity
  8
LJ
 62
     5
100
AcDbLine
 10
72497.631207
 20
36602.858416
 30
0.0
 11
72493.728739
 21
36593.613918
 31
0.0
  0
ARC
  5
2F77
100
AcDbEntity
  8
LJ
 62
     5
100
AcDbCircle
 10
72411.182978
 20
36707.100028
 30
0.0
 40
60.0
100
AcDbArc
 50
335.969
 51
112.919
  0
LINE
  5
2F78
100
AcDbEntity
  8
LJ
 62
     5
100
AcDbLine
 10
76727.257106
 20
34690.163207
 30
0.0
 11
76774.839129
 21
34651.37286
 31
0.0
  0
ARC
  5
2F79
100
AcDbEntity
  8
LJ
 62
     5
100
AcDbCircle
 10
76756.831033
 20
34987.584294
 30
0.0
 40
140.0
100
AcDbArc
 50
254.0
 51
323.013
  0
LINE
  5
2F7A
100
AcDbEntity
  8
LJ
 62
     5
100
AcDbLine
 10
76693.685649
 20
34572.998548
 30
0.0
 11
76754.492168
 21
34580.766903
 31
0.0
  0
LINE
  5
2F7B
100
AcDbEntity
  8
LJ
 62
     5
100
AcDbLine
 10
76519.845315
 20
34462.58977
 30
0.0
 11
76699.459715
 21
34411.095428
 31
0.0
  0
POINT
  5
2F7C
100
AcDbEntity
  8
LJ
 62
     5
100
AcDbPoint
 10
76950.961391
 20
34562.675628
 30
0.0
  0
ARC
  5
2F7D
100
AcDbEntity
  8
LJ
 62
     5
100
AcDbCircle
 10
75268.734538
 20
35045.059361
 30
0.0
 40
99.9999
100
AcDbArc
 50
309.735
 51
18.265
  0
LINE
  5
2F7E
100
AcDbEntity
  8
LJ
 62
     5
100
AcDbLine
 10
74808.648331
 20
35572.319071
 30
0.0
 11
75112.641137
 21
34757.291382
 31
0.0
  0
LINE
  5
2F7F
100
AcDbEntity
  8
LJ
 62
     5
100
AcDbLine
 10
74599.134104
 20
34841.639334
 30
0.0
 11
75288.771989
 21
35371.736313
 31
0.0
  0
LINE
  5
2F80
100
AcDbEntity
  8
LJ
 62
     5
100
AcDbLine
 10
75151.496191
 20
34817.475223
 30
0.0
 11
75147.321966
 21
34803.059057
 31
0.0
  0
LINE
  5
2F81
100
AcDbEntity
  8
LJ
 62
     5
100
AcDbLine
 10
75151.496191
 20
34817.475223
 30
0.0
 11
75332.593429
 21
34968.06792
 31
0.0
  0
LINE
  5
2F82
100
AcDbEntity
  8
LJ
 62
     5
100
AcDbLine
 10
76693.685649
 20
34572.998548
 30
0.0
 11
76689.857485
 21
34549.659362
 31
0.0
  0
LINE
  5
2F83
100
AcDbEntity
  8
LJ
 62
     5
100
AcDbLine
 10
76519.845315
 20
34462.58977
 30
0.0
 11
76522.196397
 21
34477.084335
 31
0.0
  0
LINE
  5
2F84
100
AcDbEntity
  8
LJ
 62
     5
100
AcDbLine
 10
75289.818668
 20
35300.029378
 30
0.0
 11
75293.980706
 21
35314.544799
 31
0.0
  0
LINE
  5
2F85
100
AcDbEntity
  8
LJ
 62
     5
100
AcDbLine
 10
75289.818668
 20
35300.029378
 30
0.0
 11
75363.726864
 21
35076.369394
 31
0.0
  0
LINE
  5
2F86
100
AcDbEntity
  8
LJ
 62
     5
100
AcDbLine
 10
76727.257106
 20
34690.163207
 30
0.0
 11
76736.40712
 21
34711.960236
 31
0.0
  0
LINE
  5
2F87
100
AcDbEntity
  8
LJ
 62
     5
100
AcDbLine
 10
76638.357182
 20
34875.913587
 30
0.0
 11
76633.740037
 21
34864.978174
 31
0.0
  0
LINE
  5
2F88
100
AcDbEntity
  8
LJ
 62
     5
100
AcDbLine
 10
76638.357182
 20
34875.913587
 30
0.0
 11
76718.23553
 21
34853.078096
 31
0.0
  0
ARC
  5
2F89
100
AcDbEntity
  8
LJ
 62
     5
100
AcDbCircle
 10
76950.961391
 20
34562.675628
 30
0.0
 40
140.0
100
AcDbArc
 50
272.595
 51
4.987
  0
LINE
  5
2F8A
100
AcDbEntity
  8
LJ
 62
     5
100
AcDbLine
 10
76995.881806
 20
34719.519137
 30
0.0
 11
76904.041811
 21
34399.13859
 31
0.0
  0
ARC
  5
2F8B
100
AcDbEntity
  8
LJ
 62
     5
100
AcDbCircle
 10
76749.518139
 20
34620.456562
 30
0.0
 40
40.0
100
AcDbArc
 50
277.233
 51
50.7674
  0
CIRCLE
  5
2F8C
100
AcDbEntity
  8
LJ
 62
     5
100
AcDbCircle
 10
76950.961391
 20
34562.675628
 30
0.0
 40
72.5
  0
LINE
  5
2F8D
100
AcDbEntity
  8
LJ
 62
     5
100
AcDbLine
 10
76699.459715
 20
34411.095428
 30
0.0
 11
76957.254853
 21
34422.799997
 31
0.0
  0
CIRCLE
  5
2F8E
100
AcDbEntity
  8
LJ
 62
     5
100
AcDbCircle
 10
76980.129142
 20
34918.381662
 30
0.0
 40
40.0
  0
CIRCLE
  5
2F8F
100
AcDbEntity
  8
LJ
 62
     5
100
AcDbCircle
 10
76980.129142
 20
34918.381662
 30
0.0
 40
40.5
  0
LINE
  5
2F90
100
AcDbEntity
  8
LJ
 62
     5
100
AcDbLine
 10
76916.182549
 20
34966.547554
 30
0.0
 11
76868.62613
 21
34903.381051
 31
0.0
  0
ARC
  5
2F91
100
AcDbEntity
  8
LJ
 62
     5
100
AcDbCircle
 10
76980.129142
 20
34918.381662
 30
0.0
 40
79.9999
100
AcDbArc
 50
4.987
 51
142.943
  0
LINE
  5
2F92
100
AcDbEntity
  8
LJ
 62
     5
100
AcDbLine
 10
77059.774814
 20
34925.339893
 30
0.0
 11
77090.415758
 21
34574.861673
 31
0.0
  0
LINE
  5
2F93
100
AcDbEntity
  8
LJ
 62
     5
100
AcDbLine
 10
56185.989125
 20
41198.657695
 30
0.0
 11
56560.886081
 21
41091.144756
 31
0.0
  0
LINE
  5
2F94
100
AcDbEntity
  8
LJ
 62
     5
100
AcDbLine
 10
55824.75379
 20
39938.642218
 30
0.0
 11
56199.650747
 21
39831.129279
 31
0.0
  0
POINT
  5
2F95
100
AcDbEntity
  8
LJ
 62
     5
100
AcDbPoint
 10
55803.087188
 20
40626.608332
 30
0.0
  0
LINE
  5
2F96
100
AcDbEntity
  8
LJ
 62
     5
100
AcDbLine
 10
56495.758381
 20
39699.83709
 30
0.0
 11
56225.08741
 21
41233.885158
 31
0.0
  0
LINE
  5
2F97
100
AcDbEntity
  8
LJ
 62
     5
100
AcDbLine
 10
56881.628103
 20
41045.593846
 30
0.0
 11
55839.229875
 21
39888.029147
 31
0.0
  0
LINE
  5
2F98
100
AcDbEntity
  8
LJ
 62
     5
100
AcDbLine
 10
55671.888548
 20
40664.220985
 30
0.0
 11
56471.067281
 21
40435.108604
 31
0.0
  0
LINE
  5
2F99
100
AcDbEntity
  8
LJ
 62
     5
100
AcDbLine
 10
56132.138791
 20
41313.310092
 30
0.0
 11
64539.328
 21
38902.607254
 31
0.0
  0
LINE
  5
2F9A
100
AcDbEntity
  8
LJ
 62
     5
100
AcDbLine
 10
55718.274514
 20
39869.89958
 30
0.0
 11
64125.436552
 21
37459.212787
 31
0.0
  0
LINE
  5
2F9B
100
AcDbEntity
  8
LJ
 62
     5
100
AcDbLine
 10
56022.660808
 20
41392.397084
 30
0.0
 11
55569.423531
 21
39811.678922
 31
0.0
  0
LINE
  5
2F9C
100
AcDbEntity
  8
LJ
 62
     5
100
AcDbLine
 10
56173.632678
 20
41191.800712
 30
0.0
 11
55817.896807
 21
39950.998665
 31
0.0
  0
LINE
  5
2F9D
100
AcDbEntity
  8
LJ
 62
     5
100
AcDbLine
 10
55775.060906
 20
39959.34046
 30
0.0
 11
56133.032771
 21
41207.368871
 31
0.0
  0
ARC
  5
2F9E
100
AcDbEntity
  8
LJ
 62
     5
100
AcDbCircle
 10
55610.218468
 20
39953.709246
 30
0.0
 40
74.9999
100
AcDbArc
 50
244.403
 51
83.5975
  0
ARC
  5
2F9F
100
AcDbEntity
  8
LJ
 62
     5
100
AcDbCircle
 10
55610.218468
 20
39953.709246
 30
0.0
 40
75.0
100
AcDbArc
 50
64.4019
 51
263.598
  0
LINE
  5
2FA0
100
AcDbEntity
  8
LJ
 62
     5
100
AcDbLine
 10
55684.989962
 20
39869.896874
 30
0.0
 11
55601.83244
 21
39879.232105
 31
0.0
  0
LINE
  5
2FA1
100
AcDbEntity
  8
LJ
 62
     5
100
AcDbLine
 10
55502.350935
 20
39922.228851
 30
0.0
 11
55577.821746
 21
39886.056808
 31
0.0
  0
LINE
  5
2FA2
100
AcDbEntity
  8
LJ
 62
     5
100
AcDbLine
 10
55817.896807
 20
39950.998665
 30
0.0
 11
55824.75379
 21
39938.642218
 31
0.0
  0
LINE
  5
2FA3
100
AcDbEntity
  8
LJ
 62
     5
100
AcDbLine
 10
55722.098874
 20
39868.811221
 30
0.0
 11
55724.292903
 21
39868.173855
 31
0.0
  0
LINE
  5
2FA4
100
AcDbEntity
  8
LJ
 62
     5
100
AcDbLine
 10
55746.268938
 20
39967.55288
 30
0.0
 11
55820.491246
 21
39946.279673
 31
0.0
  0
LINE
  5
2FA5
100
AcDbEntity
  8
LJ
 62
     5
100
AcDbLine
 10
55714.368947
 20
39856.275742
 30
0.0
 11
55750.202531
 21
39981.274479
 31
0.0
  0
LINE
  5
2FA6
100
AcDbEntity
  8
LJ
 62
     5
100
AcDbLine
 10
55488.145103
 20
39988.693009
 30
0.0
 11
55713.388353
 21
39924.162254
 31
0.0
  0
LINE
  5
2FA7
100
AcDbEntity
  8
LJ
 62
     5
100
AcDbLine
 10
55718.086001
 20
39985.189642
 30
0.0
 11
55642.61519
 21
40021.361685
 31
0.0
  0
LINE
  5
2FA8
100
AcDbEntity
  8
LJ
 62
     5
100
AcDbLine
 10
55536.85928
 20
40042.430324
 30
0.0
 11
55501.025696
 21
39917.431587
 31
0.0
  0
LINE
  5
2FA9
100
AcDbEntity
  8
LJ
 62
     5
100
AcDbLine
 10
55535.434787
 20
40037.620873
 30
0.0
 11
55618.592309
 21
40028.285642
 31
0.0
  0
LINE
  5
2FAA
100
AcDbEntity
  8
LJ
 62
     5
100
AcDbLine
 10
55536.85928
 20
40042.430324
 30
0.0
 11
55506.055802
 21
40051.242005
 31
0.0
  0
LINE
  5
2FAB
100
AcDbEntity
  8
LJ
 62
     5
100
AcDbLine
 10
55501.025696
 20
39917.431587
 30
0.0
 11
55470.222218
 21
39926.243268
 31
0.0
  0
LINE
  5
2FAC
100
AcDbEntity
  8
LJ
 62
     5
100
AcDbLine
 10
55506.055802
 20
40051.242005
 30
0.0
 11
55470.222218
 21
39926.243268
 31
0.0
  0
LINE
  5
2FAD
100
AcDbEntity
  8
LJ
 62
     5
100
AcDbLine
 10
55683.565468
 20
39865.087423
 30
0.0
 11
55719.399053
 21
39990.08616
 31
0.0
  0
LINE
  5
2FAE
100
AcDbEntity
  8
LJ
 62
     5
100
AcDbLine
 10
55719.399053
 20
39990.08616
 30
0.0
 11
55750.202531
 21
39981.274479
 31
0.0
  0
LINE
  5
2FAF
100
AcDbEntity
  8
LJ
 62
     5
100
AcDbLine
 10
55683.565468
 20
39865.087423
 30
0.0
 11
55714.368947
 21
39856.275742
 31
0.0
  0
ARC
  5
2FB0
100
AcDbEntity
  8
LJ
 62
     5
100
AcDbCircle
 10
56201.223487
 20
41342.08337
 30
0.0
 40
37.5
100
AcDbArc
 50
344.0
 51
164.0
  0
LINE
  5
2FB1
100
AcDbEntity
  8
LJ
 62
     5
100
AcDbLine
 10
56185.989125
 20
41198.657695
 30
0.0
 11
56173.632678
 21
41191.800712
 31
0.0
  0
LINE
  5
2FB2
100
AcDbEntity
  8
LJ
 62
     5
100
AcDbLine
 10
56224.421663
 20
41286.899182
 30
0.0
 11
56237.276749
 21
41331.745263
 31
0.0
  0
LINE
  5
2FB3
100
AcDbEntity
  8
LJ
 62
     5
100
AcDbLine
 10
56100.238669
 20
41202.032499
 30
0.0
 11
56136.072253
 21
41327.031236
 31
0.0
  0
LINE
  5
2FB4
100
AcDbEntity
  8
LJ
 62
     5
100
AcDbLine
 10
56104.146291
 20
41215.663506
 30
0.0
 11
56178.35167
 21
41194.395151
 31
0.0
  0
LINE
  5
2FB5
100
AcDbEntity
  8
LJ
 62
     5
100
AcDbLine
 10
56165.189165
 20
41352.469306
 30
0.0
 11
56152.365207
 21
41307.5718
 31
0.0
  0
ARC
  5
2FB6
100
AcDbEntity
  8
LJ
 62
     5
100
AcDbCircle
 10
55996.187444
 20
41299.47819
 30
0.0
 40
74.9999
100
AcDbArc
 50
244.403
 51
83.5975
  0
LINE
  5
2FB7
100
AcDbEntity
  8
LJ
 62
     5
100
AcDbLine
 10
55892.024778
 20
41397.010948
 30
0.0
 11
55856.191194
 21
41272.012211
 31
0.0
  0
LINE
  5
2FB8
100
AcDbEntity
  8
LJ
 62
     5
100
AcDbLine
 10
55921.403763
 20
41383.389816
 30
0.0
 11
56004.462031
 21
41374.042398
 31
0.0
  0
LINE
  5
2FB9
100
AcDbEntity
  8
LJ
 62
     5
100
AcDbLine
 10
55922.729002
 20
41388.18708
 30
0.0
 11
55892.024778
 21
41397.010948
 31
0.0
  0
LINE
  5
2FBA
100
AcDbEntity
  8
LJ
 62
     5
100
AcDbLine
 10
55886.895418
 20
41263.188343
 30
0.0
 11
55856.191194
 21
41272.012211
 31
0.0
  0
LINE
  5
2FBB
100
AcDbEntity
  8
LJ
 62
     5
100
AcDbLine
 10
55888.319911
 20
41267.997794
 30
0.0
 11
55963.790722
 21
41231.825751
 31
0.0
  0
LINE
  5
2FBC
100
AcDbEntity
  8
LJ
 62
     5
100
AcDbLine
 10
55922.729002
 20
41388.18708
 30
0.0
 11
55886.895418
 21
41263.188343
 31
0.0
  0
ARC
  5
2FBD
100
AcDbEntity
  8
LJ
 62
     5
100
AcDbCircle
 10
55996.076003
 20
41299.565257
 30
0.0
 40
75.0
100
AcDbArc
 50
64.4019
 51
263.598
  0
LINE
  5
2FBE
100
AcDbEntity
  8
LJ
 62
     5
100
AcDbLine
 10
56070.859684
 20
41215.653631
 30
0.0
 11
55987.702162
 21
41224.988862
 31
0.0
  0
LINE
  5
2FBF
100
AcDbEntity
  8
LJ
 62
     5
100
AcDbLine
 10
56069.435191
 20
41210.84418
 30
0.0
 11
56105.268775
 21
41335.842917
 31
0.0
  0
LINE
  5
2FC0
100
AcDbEntity
  8
LJ
 62
     5
100
AcDbLine
 10
56103.955723
 20
41330.946398
 30
0.0
 11
56028.484912
 21
41367.118441
 31
0.0
  0
LINE
  5
2FC1
100
AcDbEntity
  8
LJ
 62
     5
100
AcDbLine
 10
56105.268775
 20
41335.842917
 30
0.0
 11
56136.072253
 21
41327.031236
 31
0.0
  0
LINE
  5
2FC2
100
AcDbEntity
  8
LJ
 62
     5
100
AcDbLine
 10
56069.435191
 20
41210.84418
 30
0.0
 11
56100.238669
 21
41202.032499
 31
0.0
  0
LINE
  5
2FC3
100
AcDbEntity
  8
LJ
 62
     5
100
AcDbLine
 10
56567.035176
 20
40407.599096
 30
0.0
 11
64584.5797
 21
38108.555259
 31
0.0
  0
LINE
  5
2FC4
100
AcDbEntity
  8
LJ
 62
     5
100
AcDbLine
 10
56201.338202
 20
39837.079278
 30
0.0
 11
64153.458276
 21
37556.850492
 31
0.0
  0
LINE
  5
2FC5
100
AcDbEntity
  8
LJ
 62
     5
100
AcDbLine
 10
56559.198626
 20
41085.194756
 30
0.0
 11
64511.306271
 21
38804.969534
 31
0.0
  0
LINE
  5
2FC6
100
AcDbEntity
  8
LJ
 62
     5
100
AcDbLine
 10
56560.886081
 20
41091.144756
 30
0.0
 11
56199.650747
 21
39831.129279
 31
0.0
  0
LINE
  5
2FC7
100
AcDbEntity
  8
LJ
 62
     5
100
AcDbLine
 10
64124.576026
 20
37565.144411
 30
0.0
 11
64482.535704
 21
38813.272077
 31
0.0
  0
LINE
  5
2FC8
100
AcDbEntity
  8
LJ
 62
     5
100
AcDbLine
 10
64069.861108
 20
37580.792982
 30
0.0
 11
64427.721532
 21
38828.908461
 31
0.0
  0
LINE
  5
2FC9
100
AcDbEntity
  8
LJ
 62
     5
100
AcDbLine
 10
64674.074389
 20
38911.64805
 30
0.0
 11
64220.837112
 21
37330.929887
 31
0.0
  0
POINT
  5
2FCA
100
AcDbEntity
  8
LJ
 62
     5
100
AcDbPoint
 10
64454.49979
 20
38145.855883
 30
0.0
  0
LINE
  5
2FCB
100
AcDbEntity
  8
LJ
 62
     5
100
AcDbLine
 10
63759.024298
 20
39073.538201
 30
0.0
 11
64029.596015
 21
37539.477946
 31
0.0
  0
LINE
  5
2FCC
100
AcDbEntity
  8
LJ
 62
     5
100
AcDbLine
 10
63373.055321
 20
37727.769257
 30
0.0
 11
64415.564991
 21
38885.246889
 31
0.0
  0
ARC
  5
2FCD
100
AcDbEntity
  8
LJ
 62
     5
100
AcDbCircle
 10
64261.520607
 20
37473.047279
 30
0.0
 40
74.9999
100
AcDbArc
 50
244.403
 51
83.5975
  0
LINE
  5
2FCE
100
AcDbEntity
  8
LJ
 62
     5
100
AcDbLine
 10
64153.653074
 20
37441.566884
 30
0.0
 11
64229.123885
 21
37405.394841
 31
0.0
  0
ARC
  5
2FCF
100
AcDbEntity
  8
LJ
 62
     5
100
AcDbCircle
 10
64261.520607
 20
37473.047279
 30
0.0
 40
75.0
100
AcDbArc
 50
64.4019
 51
263.598
  0
LINE
  5
2FD0
100
AcDbEntity
  8
LJ
 62
     5
100
AcDbLine
 10
64336.403543
 20
37389.14784
 30
0.0
 11
64253.246021
 21
37398.483071
 31
0.0
  0
LINE
  5
2FD1
100
AcDbEntity
  8
LJ
 62
     5
100
AcDbLine
 10
64186.749113
 20
37556.859651
 30
0.0
 11
64269.906635
 21
37547.52442
 31
0.0
  0
LINE
  5
2FD2
100
AcDbEntity
  8
LJ
 62
     5
100
AcDbLine
 10
64152.327835
 20
37436.76962
 30
0.0
 11
64188.074352
 21
37561.656915
 31
0.0
  0
LINE
  5
2FD3
100
AcDbEntity
  8
LJ
 62
     5
100
AcDbLine
 10
64334.979049
 20
37384.338389
 30
0.0
 11
64370.812633
 21
37509.337126
 31
0.0
  0
LINE
  5
2FD4
100
AcDbEntity
  8
LJ
 62
     5
100
AcDbLine
 10
64365.683273
 20
37375.514521
 30
0.0
 11
64401.516857
 21
37500.513258
 31
0.0
  0
LINE
  5
2FD5
100
AcDbEntity
  8
LJ
 62
     5
100
AcDbLine
 10
64370.812633
 20
37509.337126
 30
0.0
 11
64401.516857
 21
37500.513258
 31
0.0
  0
LINE
  5
2FD6
100
AcDbEntity
  8
LJ
 62
     5
100
AcDbLine
 10
64334.979049
 20
37384.338389
 30
0.0
 11
64365.683273
 21
37375.514521
 31
0.0
  0
LINE
  5
2FD7
100
AcDbEntity
  8
LJ
 62
     5
100
AcDbLine
 10
64369.487395
 20
37504.539862
 30
0.0
 11
64294.028771
 21
37540.61265
 31
0.0
  0
LINE
  5
2FD8
100
AcDbEntity
  8
LJ
 62
     5
100
AcDbLine
 10
64121.524357
 20
37445.581301
 30
0.0
 11
64157.370128
 21
37570.480784
 31
0.0
  0
LINE
  5
2FD9
100
AcDbEntity
  8
LJ
 62
     5
100
AcDbLine
 10
64121.630902
 20
37460.304027
 30
0.0
 11
64119.436873
 21
37460.941393
 31
0.0
  0
LINE
  5
2FDA
100
AcDbEntity
  8
LJ
 62
     5
100
AcDbLine
 10
64152.327835
 20
37436.76962
 30
0.0
 11
64121.524357
 21
37445.581301
 31
0.0
  0
LINE
  5
2FDB
100
AcDbEntity
  8
LJ
 62
     5
100
AcDbLine
 10
64188.074352
 20
37561.656915
 30
0.0
 11
64157.370128
 21
37570.480784
 31
0.0
  0
LINE
  5
2FDC
100
AcDbEntity
  8
LJ
 62
     5
100
AcDbLine
 10
64720.848771
 20
38730.095145
 30
0.0
 11
64756.682356
 21
38855.093882
 31
0.0
  0
LINE
  5
2FDD
100
AcDbEntity
  8
LJ
 62
     5
100
AcDbLine
 10
64720.848771
 20
38730.095145
 30
0.0
 11
64751.65225
 21
38721.283464
 31
0.0
  0
LINE
  5
2FDE
100
AcDbEntity
  8
LJ
 62
     5
100
AcDbLine
 10
64755.357117
 20
38850.296618
 30
0.0
 11
64679.898493
 21
38886.369407
 31
0.0
  0
ARC
  5
2FDF
100
AcDbEntity
  8
LJ
 62
     5
100
AcDbCircle
 10
64647.390329
 20
38818.804036
 30
0.0
 40
74.9999
100
AcDbArc
 50
244.403
 51
83.5975
  0
LINE
  5
2FE0
100
AcDbEntity
  8
LJ
 62
     5
100
AcDbLine
 10
64572.618835
 20
38902.616408
 30
0.0
 11
64655.776357
 21
38893.281177
 31
0.0
  0
LINE
  5
2FE1
100
AcDbEntity
  8
LJ
 62
     5
100
AcDbLine
 10
64539.522796
 20
38787.32364
 30
0.0
 11
64614.993607
 21
38751.151598
 31
0.0
  0
LINE
  5
2FE2
100
AcDbEntity
  8
LJ
 62
     5
100
AcDbLine
 10
64574.043328
 20
38907.425859
 30
0.0
 11
64538.197557
 21
38782.526376
 31
0.0
  0
ARC
  5
2FE3
100
AcDbEntity
  8
LJ
 62
     5
100
AcDbCircle
 10
64647.489584
 20
38818.816223
 30
0.0
 40
75.0
100
AcDbArc
 50
64.4019
 51
263.598
  0
LINE
  5
2FE4
100
AcDbEntity
  8
LJ
 62
     5
100
AcDbLine
 10
64722.273265
 20
38734.904596
 30
0.0
 11
64639.115743
 21
38744.239827
 31
0.0
  0
LINE
  5
2FE5
100
AcDbEntity
  8
LJ
 62
     5
100
AcDbLine
 10
64751.65225
 20
38721.283464
 30
0.0
 11
64787.485834
 21
38846.282201
 31
0.0
  0
LINE
  5
2FE6
100
AcDbEntity
  8
LJ
 62
     5
100
AcDbLine
 10
64756.682356
 20
38855.093882
 30
0.0
 11
64787.485834
 21
38846.282201
 31
0.0
  0
LINE
  5
2FE7
100
AcDbEntity
  8
LJ
 62
     5
100
AcDbLine
 10
64543.23985
 20
38916.23754
 30
0.0
 11
64507.394079
 21
38791.338058
 31
0.0
  0
LINE
  5
2FE8
100
AcDbEntity
  8
LJ
 62
     5
100
AcDbLine
 10
64574.043328
 20
38907.425859
 30
0.0
 11
64543.23985
 21
38916.23754
 31
0.0
  0
LINE
  5
2FE9
100
AcDbEntity
  8
LJ
 62
     5
100
AcDbLine
 10
64538.197557
 20
38782.526376
 30
0.0
 11
64507.394079
 21
38791.338058
 31
0.0
  0
LINE
  5
2FEA
100
AcDbEntity
  8
LJ
 62
     5
100
AcDbLine
 10
47534.576523
 20
43679.410143
 30
0.0
 11
47909.473479
 21
43571.897204
 31
0.0
  0
LINE
  5
2FEB
100
AcDbEntity
  8
LJ
 62
     5
100
AcDbLine
 10
47173.341188
 20
42419.394666
 30
0.0
 11
47548.238145
 21
42311.881727
 31
0.0
  0
POINT
  5
2FEC
100
AcDbEntity
  8
LJ
 62
     5
100
AcDbPoint
 10
47151.674586
 20
43107.36078
 30
0.0
  0
LINE
  5
2FED
100
AcDbEntity
  8
LJ
 62
     5
100
AcDbLine
 10
47844.345779
 20
42180.589538
 30
0.0
 11
47573.674808
 21
43714.637606
 31
0.0
  0
LINE
  5
2FEE
100
AcDbEntity
  8
LJ
 62
     5
100
AcDbLine
 10
48230.215501
 20
43526.346294
 30
0.0
 11
47187.817272
 21
42368.781595
 31
0.0
  0
LINE
  5
2FEF
100
AcDbEntity
  8
LJ
 62
     5
100
AcDbLine
 10
47020.475946
 20
43144.973433
 30
0.0
 11
47819.654678
 21
42915.861052
 31
0.0
  0
LINE
  5
2FF0
100
AcDbEntity
  8
LJ
 62
     5
100
AcDbLine
 10
47480.726189
 20
43794.06254
 30
0.0
 11
55887.915398
 21
41383.359703
 31
0.0
  0
LINE
  5
2FF1
100
AcDbEntity
  8
LJ
 62
     5
100
AcDbLine
 10
47066.861912
 20
42350.652028
 30
0.0
 11
55474.02395
 21
39939.965235
 31
0.0
  0
LINE
  5
2FF2
100
AcDbEntity
  8
LJ
 62
     5
100
AcDbLine
 10
47371.248206
 20
43873.149533
 30
0.0
 11
46918.010929
 21
42292.43137
 31
0.0
  0
LINE
  5
2FF3
100
AcDbEntity
  8
LJ
 62
     5
100
AcDbLine
 10
47522.220076
 20
43672.55316
 30
0.0
 11
47166.484205
 21
42431.751113
 31
0.0
  0
LINE
  5
2FF4
100
AcDbEntity
  8
LJ
 62
     5
100
AcDbLine
 10
47123.648304
 20
42440.092908
 30
0.0
 11
47481.620169
 21
43688.121319
 31
0.0
  0
ARC
  5
2FF5
100
AcDbEntity
  8
LJ
 62
     5
100
AcDbCircle
 10
46958.805866
 20
42434.461694
 30
0.0
 40
74.9999
100
AcDbArc
 50
244.403
 51
83.5975
  0
ARC
  5
2FF6
100
AcDbEntity
  8
LJ
 62
     5
100
AcDbCircle
 10
46958.805866
 20
42434.461694
 30
0.0
 40
75.0
100
AcDbArc
 50
64.4019
 51
263.598
  0
LINE
  5
2FF7
100
AcDbEntity
  8
LJ
 62
     5
100
AcDbLine
 10
47033.57736
 20
42350.649323
 30
0.0
 11
46950.419838
 21
42359.984553
 31
0.0
  0
LINE
  5
2FF8
100
AcDbEntity
  8
LJ
 62
     5
100
AcDbLine
 10
46850.938332
 20
42402.981299
 30
0.0
 11
46926.409144
 21
42366.809256
 31
0.0
  0
LINE
  5
2FF9
100
AcDbEntity
  8
LJ
 62
     5
100
AcDbLine
 10
47166.484205
 20
42431.751113
 30
0.0
 11
47173.341188
 21
42419.394666
 31
0.0
  0
LINE
  5
2FFA
100
AcDbEntity
  8
LJ
 62
     5
100
AcDbLine
 10
47070.686272
 20
42349.563669
 30
0.0
 11
47072.880301
 21
42348.926303
 31
0.0
  0
LINE
  5
2FFB
100
AcDbEntity
  8
LJ
 62
     5
100
AcDbLine
 10
47094.856336
 20
42448.305328
 30
0.0
 11
47169.078644
 21
42427.032121
 31
0.0
  0
LINE
  5
2FFC
100
AcDbEntity
  8
LJ
 62
     5
100
AcDbLine
 10
47062.956345
 20
42337.02819
 30
0.0
 11
47098.789929
 21
42462.026927
 31
0.0
  0
LINE
  5
2FFD
100
AcDbEntity
  8
LJ
 62
     5
100
AcDbLine
 10
46836.732501
 20
42469.445457
 30
0.0
 11
47061.975751
 21
42404.914702
 31
0.0
  0
LINE
  5
2FFE
100
AcDbEntity
  8
LJ
 62
     5
100
AcDbLine
 10
47066.673399
 20
42465.94209
 30
0.0
 11
46991.202588
 21
42502.114133
 31
0.0
  0
LINE
  5
2FFF
100
AcDbEntity
  8
LJ
 62
     5
100
AcDbLine
 10
46885.446678
 20
42523.182772
 30
0.0
 11
46849.613094
 21
42398.184035
 31
0.0
  0
LINE
  5
3000
100
AcDbEntity
  8
LJ
 62
     5
100
AcDbLine
 10
46884.022184
 20
42518.373321
 30
0.0
 11
46967.179706
 21
42509.03809
 31
0.0
  0
LINE
  5
3001
100
AcDbEntity
  8
LJ
 62
     5
100
AcDbLine
 10
46885.446678
 20
42523.182772
 30
0.0
 11
46854.6432
 21
42531.994453
 31
0.0
  0
LINE
  5
3002
100
AcDbEntity
  8
LJ
 62
     5
100
AcDbLine
 10
46849.613094
 20
42398.184035
 30
0.0
 11
46818.809615
 21
42406.995716
 31
0.0
  0
LINE
  5
3003
100
AcDbEntity
  8
LJ
 62
     5
100
AcDbLine
 10
46854.6432
 20
42531.994453
 30
0.0
 11
46818.809615
 21
42406.995716
 31
0.0
  0
LINE
  5
3004
100
AcDbEntity
  8
LJ
 62
     5
100
AcDbLine
 10
47032.152866
 20
42345.839872
 30
0.0
 11
47067.98645
 21
42470.838609
 31
0.0
  0
LINE
  5
3005
100
AcDbEntity
  8
LJ
 62
     5
100
AcDbLine
 10
47067.98645
 20
42470.838609
 30
0.0
 11
47098.789929
 21
42462.026927
 31
0.0
  0
LINE
  5
3006
100
AcDbEntity
  8
LJ
 62
     5
100
AcDbLine
 10
47032.152866
 20
42345.839872
 30
0.0
 11
47062.956345
 21
42337.02819
 31
0.0
  0
ARC
  5
3007
100
AcDbEntity
  8
LJ
 62
     5
100
AcDbCircle
 10
47549.810884
 20
43822.835818
 30
0.0
 40
37.5
100
AcDbArc
 50
344.0
 51
164.0
  0
LINE
  5
3008
100
AcDbEntity
  8
LJ
 62
     5
100
AcDbLine
 10
47534.576523
 20
43679.410143
 30
0.0
 11
47522.220076
 21
43672.55316
 31
0.0
  0
LINE
  5
3009
100
AcDbEntity
  8
LJ
 62
     5
100
AcDbLine
 10
47573.009061
 20
43767.65163
 30
0.0
 11
47585.864147
 21
43812.497712
 31
0.0
  0
LINE
  5
300A
100
AcDbEntity
  8
LJ
 62
     5
100
AcDbLine
 10
47448.826067
 20
43682.784947
 30
0.0
 11
47484.659651
 21
43807.783684
 31
0.0
  0
LINE
  5
300B
100
AcDbEntity
  8
LJ
 62
     5
100
AcDbLine
 10
47452.733689
 20
43696.415954
 30
0.0
 11
47526.939068
 21
43675.147599
 31
0.0
  0
LINE
  5
300C
100
AcDbEntity
  8
LJ
 62
     5
100
AcDbLine
 10
47513.776563
 20
43833.221754
 30
0.0
 11
47500.952605
 21
43788.324248
 31
0.0
  0
ARC
  5
300D
100
AcDbEntity
  8
LJ
 62
     5
100
AcDbCircle
 10
47344.774842
 20
43780.230638
 30
0.0
 40
74.9999
100
AcDbArc
 50
244.403
 51
83.5975
  0
LINE
  5
300E
100
AcDbEntity
  8
LJ
 62
     5
100
AcDbLine
 10
47240.612176
 20
43877.763397
 30
0.0
 11
47204.778592
 21
43752.76466
 31
0.0
  0
LINE
  5
300F
100
AcDbEntity
  8
LJ
 62
     5
100
AcDbLine
 10
47269.991161
 20
43864.142264
 30
0.0
 11
47353.049429
 21
43854.794847
 31
0.0
  0
LINE
  5
3010
100
AcDbEntity
  8
LJ
 62
     5
100
AcDbLine
 10
47271.3164
 20
43868.939528
 30
0.0
 11
47240.612176
 21
43877.763397
 31
0.0
  0
LINE
  5
3011
100
AcDbEntity
  8
LJ
 62
     5
100
AcDbLine
 10
47235.482816
 20
43743.940791
 30
0.0
 11
47204.778592
 21
43752.76466
 31
0.0
  0
LINE
  5
3012
100
AcDbEntity
  8
LJ
 62
     5
100
AcDbLine
 10
47236.907309
 20
43748.750242
 30
0.0
 11
47312.37812
 21
43712.5782
 31
0.0
  0
LINE
  5
3013
100
AcDbEntity
  8
LJ
 62
     5
100
AcDbLine
 10
47271.3164
 20
43868.939528
 30
0.0
 11
47235.482816
 21
43743.940791
 31
0.0
  0
ARC
  5
3014
100
AcDbEntity
  8
LJ
 62
     5
100
AcDbCircle
 10
47344.663401
 20
43780.317706
 30
0.0
 40
75.0
100
AcDbArc
 50
64.4019
 51
263.598
  0
LINE
  5
3015
100
AcDbEntity
  8
LJ
 62
     5
100
AcDbLine
 10
47419.447082
 20
43696.406079
 30
0.0
 11
47336.28956
 21
43705.74131
 31
0.0
  0
LINE
  5
3016
100
AcDbEntity
  8
LJ
 62
     5
100
AcDbLine
 10
47418.022588
 20
43691.596628
 30
0.0
 11
47453.856173
 21
43816.595365
 31
0.0
  0
LINE
  5
3017
100
AcDbEntity
  8
LJ
 62
     5
100
AcDbLine
 10
47452.543121
 20
43811.698846
 30
0.0
 11
47377.07231
 21
43847.870889
 31
0.0
  0
LINE
  5
3018
100
AcDbEntity
  8
LJ
 62
     5
100
AcDbLine
 10
47453.856173
 20
43816.595365
 30
0.0
 11
47484.659651
 21
43807.783684
 31
0.0
  0
LINE
  5
3019
100
AcDbEntity
  8
LJ
 62
     5
100
AcDbLine
 10
47418.022588
 20
43691.596628
 30
0.0
 11
47448.826067
 21
43682.784947
 31
0.0
  0
LINE
  5
301A
100
AcDbEntity
  8
LJ
 62
     5
100
AcDbLine
 10
47915.622574
 20
42888.351545
 30
0.0
 11
55933.167098
 21
40589.307707
 31
0.0
  0
LINE
  5
301B
100
AcDbEntity
  8
LJ
 62
     5
100
AcDbLine
 10
47549.9256
 20
42317.831726
 30
0.0
 11
55502.045674
 21
40037.60294
 31
0.0
  0
LINE
  5
301C
100
AcDbEntity
  8
LJ
 62
     5
100
AcDbLine
 10
47907.786024
 20
43565.947205
 30
0.0
 11
55859.893669
 21
41285.721982
 31
0.0
  0
LINE
  5
301D
100
AcDbEntity
  8
LJ
 62
     5
100
AcDbLine
 10
47909.473479
 20
43571.897204
 30
0.0
 11
47548.238145
 21
42311.881727
 31
0.0
  0
LINE
  5
301E
100
AcDbEntity
  8
LJ
 62
     5
100
AcDbLine
 10
55473.163424
 20
40045.896859
 30
0.0
 11
55831.123102
 21
41294.024525
 31
0.0
  0
LINE
  5
301F
100
AcDbEntity
  8
LJ
 62
     5
100
AcDbLine
 10
55418.448506
 20
40061.54543
 30
0.0
 11
55776.308929
 21
41309.660909
 31
0.0
  0
LINE
  5
3020
100
AcDbEntity
  8
LJ
 62
     5
100
AcDbLine
 10
56022.661787
 20
41392.400498
 30
0.0
 11
55569.42451
 21
39811.682335
 31
0.0
  0
POINT
  5
3021
100
AcDbEntity
  8
LJ
 62
     5
100
AcDbPoint
 10
55803.087188
 20
40626.608332
 30
0.0
  0
LINE
  5
3022
100
AcDbEntity
  8
LJ
 62
     5
100
AcDbLine
 10
55107.611696
 20
41554.290649
 30
0.0
 11
55378.183412
 21
40020.230394
 31
0.0
  0
LINE
  5
3023
100
AcDbEntity
  8
LJ
 62
     5
100
AcDbLine
 10
54721.642719
 20
40208.521706
 30
0.0
 11
55764.152389
 21
41365.999337
 31
0.0
  0
ARC
  5
3024
100
AcDbEntity
  8
LJ
 62
     5
100
AcDbCircle
 10
55610.108005
 20
39953.799728
 30
0.0
 40
74.9999
100
AcDbArc
 50
244.403
 51
83.5975
  0
LINE
  5
3025
100
AcDbEntity
  8
LJ
 62
     5
100
AcDbLine
 10
55502.240472
 20
39922.319332
 30
0.0
 11
55577.711283
 21
39886.147289
 31
0.0
  0
ARC
  5
3026
100
AcDbEntity
  8
LJ
 62
     5
100
AcDbCircle
 10
55610.108005
 20
39953.799728
 30
0.0
 40
75.0
100
AcDbArc
 50
64.4019
 51
263.598
  0
LINE
  5
3027
100
AcDbEntity
  8
LJ
 62
     5
100
AcDbLine
 10
55684.990941
 20
39869.900288
 30
0.0
 11
55601.833419
 21
39879.235519
 31
0.0
  0
LINE
  5
3028
100
AcDbEntity
  8
LJ
 62
     5
100
AcDbLine
 10
55535.336511
 20
40037.612099
 30
0.0
 11
55618.494033
 21
40028.276869
 31
0.0
  0
LINE
  5
3029
100
AcDbEntity
  8
LJ
 62
     5
100
AcDbLine
 10
55500.915233
 20
39917.522068
 30
0.0
 11
55536.661749
 21
40042.409363
 31
0.0
  0
LINE
  5
302A
100
AcDbEntity
  8
LJ
 62
     5
100
AcDbLine
 10
55683.566447
 20
39865.090837
 30
0.0
 11
55719.400031
 21
39990.089574
 31
0.0
  0
LINE
  5
302B
100
AcDbEntity
  8
LJ
 62
     5
100
AcDbLine
 10
55714.270671
 20
39856.266969
 30
0.0
 11
55750.104255
 21
39981.265706
 31
0.0
  0
LINE
  5
302C
100
AcDbEntity
  8
LJ
 62
     5
100
AcDbLine
 10
55719.400031
 20
39990.089574
 30
0.0
 11
55750.104255
 21
39981.265706
 31
0.0
  0
LINE
  5
302D
100
AcDbEntity
  8
LJ
 62
     5
100
AcDbLine
 10
55683.566447
 20
39865.090837
 30
0.0
 11
55714.270671
 21
39856.266969
 31
0.0
  0
LINE
  5
302E
100
AcDbEntity
  8
LJ
 62
     5
100
AcDbLine
 10
55718.074793
 20
39985.29231
 30
0.0
 11
55642.616168
 21
40021.365098
 31
0.0
  0
LINE
  5
302F
100
AcDbEntity
  8
LJ
 62
     5
100
AcDbLine
 10
55470.111755
 20
39926.333749
 30
0.0
 11
55505.957526
 21
40051.233232
 31
0.0
  0
LINE
  5
3030
100
AcDbEntity
  8
LJ
 62
     5
100
AcDbLine
 10
55470.2183
 20
39941.056475
 30
0.0
 11
55468.024271
 21
39941.693841
 31
0.0
  0
LINE
  5
3031
100
AcDbEntity
  8
LJ
 62
     5
100
AcDbLine
 10
55500.915233
 20
39917.522068
 30
0.0
 11
55470.111755
 21
39926.333749
 31
0.0
  0
LINE
  5
3032
100
AcDbEntity
  8
LJ
 62
     5
100
AcDbLine
 10
55536.661749
 20
40042.409363
 30
0.0
 11
55505.957526
 21
40051.233232
 31
0.0
  0
LINE
  5
3033
100
AcDbEntity
  8
LJ
 62
     5
100
AcDbLine
 10
56069.436169
 20
41210.847594
 30
0.0
 11
56105.269753
 21
41335.846331
 31
0.0
  0
LINE
  5
3034
100
AcDbEntity
  8
LJ
 62
     5
100
AcDbLine
 10
56069.436169
 20
41210.847594
 30
0.0
 11
56100.239648
 21
41202.035912
 31
0.0
  0
LINE
  5
3035
100
AcDbEntity
  8
LJ
 62
     5
100
AcDbLine
 10
56103.944515
 20
41331.049067
 30
0.0
 11
56028.485891
 21
41367.121855
 31
0.0
  0
ARC
  5
3036
100
AcDbEntity
  8
LJ
 62
     5
100
AcDbCircle
 10
55995.977727
 20
41299.556484
 30
0.0
 40
74.9999
100
AcDbArc
 50
244.403
 51
83.5975
  0
LINE
  5
3037
100
AcDbEntity
  8
LJ
 62
     5
100
AcDbLine
 10
55921.206233
 20
41383.368856
 30
0.0
 11
56004.363755
 21
41374.033625
 31
0.0
  0
LINE
  5
3038
100
AcDbEntity
  8
LJ
 62
     5
100
AcDbLine
 10
55888.110194
 20
41268.076089
 30
0.0
 11
55963.581005
 21
41231.904046
 31
0.0
  0
LINE
  5
3039
100
AcDbEntity
  8
LJ
 62
     5
100
AcDbLine
 10
55922.630726
 20
41388.178307
 30
0.0
 11
55886.784955
 21
41263.278825
 31
0.0
  0
ARC
  5
303A
100
AcDbEntity
  8
LJ
 62
     5
100
AcDbCircle
 10
55996.076982
 20
41299.568671
 30
0.0
 40
75.0
100
AcDbArc
 50
64.4019
 51
263.598
  0
LINE
  5
303B
100
AcDbEntity
  8
LJ
 62
     5
100
AcDbLine
 10
56070.860663
 20
41215.657045
 30
0.0
 11
55987.703141
 21
41224.992275
 31
0.0
  0
LINE
  5
303C
100
AcDbEntity
  8
LJ
 62
     5
100
AcDbLine
 10
56100.239648
 20
41202.035912
 30
0.0
 11
56136.073232
 21
41327.034649
 31
0.0
  0
LINE
  5
303D
100
AcDbEntity
  8
LJ
 62
     5
100
AcDbLine
 10
56105.269753
 20
41335.846331
 30
0.0
 11
56136.073232
 21
41327.034649
 31
0.0
  0
LINE
  5
303E
100
AcDbEntity
  8
LJ
 62
     5
100
AcDbLine
 10
55891.827248
 20
41396.989988
 30
0.0
 11
55855.981477
 21
41272.090506
 31
0.0
  0
LINE
  5
303F
100
AcDbEntity
  8
LJ
 62
     5
100
AcDbLine
 10
55922.630726
 20
41388.178307
 30
0.0
 11
55891.827248
 21
41396.989988
 31
0.0
  0
LINE
  5
3040
100
AcDbEntity
  8
LJ
 62
     5
100
AcDbLine
 10
55886.784955
 20
41263.278825
 30
0.0
 11
55855.981477
 21
41272.090506
 31
0.0
  0
LINE
  5
3041
100
AcDbEntity
  8
LJ
 62
     5
100
AcDbLine
 10
71623.321628
 20
35309.259298
 30
0.0
 11
64369.643426
 21
37389.174095
 31
0.0
  0
LINE
  5
3042
100
AcDbEntity
  8
LJ
 62
     5
100
AcDbLine
 10
71651.313998
 20
35406.90543
 30
0.0
 11
64397.665153
 21
37486.81181
 31
0.0
  0
LINE
  5
3043
100
AcDbEntity
  8
LJ
 62
     5
100
AcDbLine
 10
72009.219655
 20
36654.97972
 30
0.0
 11
64755.523937
 21
38734.968443
 31
0.0
  0
LINE
  5
3044
100
AcDbEntity
  8
LJ
 62
     5
100
AcDbLine
 10
72037.228953
 20
36752.620999
 30
0.0
 11
64783.545663
 21
38832.606157
 31
0.0
  0
LINE
  5
3045
100
AcDbEntity
  8
LJ
 62
     5
100
AcDbLine
 10
72043.161674
 20
35969.909805
 30
0.0
 11
64297.666359
 21
38190.825747
 31
0.0
  0
LINE
  5
3046
100
AcDbEntity
  8
LJ
 62
     5
100
AcDbLine
 10
64675.66039
 20
38917.205959
 30
0.0
 11
64234.484317
 21
37378.571372
 31
0.0
  0
LINE
  5
3047
100
AcDbEntity
  8
LJ
 62
     5
100
AcDbLine
 10
64829.503606
 20
38713.738113
 30
0.0
 11
64471.643183
 21
37465.622634
 31
0.0
  0
LINE
  5
3048
100
AcDbEntity
  8
LJ
 62
     5
100
AcDbLine
 10
64774.788689
 20
38729.386684
 30
0.0
 11
64416.916078
 21
37481.37046
 31
0.0
  0
LINE
  5
3049
100
AcDbEntity
  8
LJ
 62
     5
100
AcDbLine
 10
64682.371892
 20
38940.497497
 30
0.0
 11
64227.28521
 21
37353.507197
 31
0.0
  0
POINT
  5
304A
100
AcDbEntity
  8
LJ
 62
     5
100
AcDbPoint
 10
64454.49979
 20
38145.855883
 30
0.0
  0
LINE
  5
304B
100
AcDbEntity
  8
LJ
 62
     5
100
AcDbLine
 10
65037.480482
 20
37250.477193
 30
0.0
 11
64866.434122
 21
38755.953477
 31
0.0
  0
LINE
  5
304C
100
AcDbEntity
  8
LJ
 62
     5
100
AcDbLine
 10
65423.449459
 20
38596.246136
 30
0.0
 11
64480.5644
 21
37410.196721
 31
0.0
  0
LINE
  5
304D
100
AcDbEntity
  8
LJ
 62
     5
100
AcDbLine
 10
64370.773872
 20
37509.254987
 30
0.0
 11
64334.928101
 21
37384.355504
 31
0.0
  0
LINE
  5
304E
100
AcDbEntity
  8
LJ
 62
     5
100
AcDbLine
 10
64401.577351
 20
37500.443305
 30
0.0
 11
64365.73158
 21
37375.543823
 31
0.0
  0
LINE
  5
304F
100
AcDbEntity
  8
LJ
 62
     5
100
AcDbLine
 10
64152.289074
 20
37436.68748
 30
0.0
 11
64188.122658
 21
37561.686217
 31
0.0
  0
LINE
  5
3050
100
AcDbEntity
  8
LJ
 62
     5
100
AcDbLine
 10
64121.58485
 20
37445.511349
 30
0.0
 11
64157.418435
 21
37570.510086
 31
0.0
  0
ARC
  5
3051
100
AcDbEntity
  8
LJ
 62
     5
100
AcDbCircle
 10
64261.5811
 20
37472.977327
 30
0.0
 40
74.9999
100
AcDbArc
 50
244.403
 51
83.5975
  0
ARC
  5
3052
100
AcDbEntity
  8
LJ
 62
     5
100
AcDbCircle
 10
64261.5811
 20
37472.977327
 30
0.0
 40
75.0
100
AcDbArc
 50
64.4019
 51
263.598
  0
LINE
  5
3053
100
AcDbEntity
  8
LJ
 62
     5
100
AcDbLine
 10
64376.275438
 20
37387.316548
 30
0.0
 11
64373.461507
 21
37388.079302
 31
0.0
  0
LINE
  5
3054
100
AcDbEntity
  8
LJ
 62
     5
100
AcDbLine
 10
64334.928101
 20
37384.355504
 30
0.0
 11
64365.73158
 21
37375.543823
 31
0.0
  0
LINE
  5
3055
100
AcDbEntity
  8
LJ
 62
     5
100
AcDbLine
 10
64336.352595
 20
37389.164955
 30
0.0
 11
64253.195073
 21
37398.500186
 31
0.0
  0
LINE
  5
3056
100
AcDbEntity
  8
LJ
 62
     5
100
AcDbLine
 10
64152.289074
 20
37436.68748
 30
0.0
 11
64121.58485
 21
37445.511349
 31
0.0
  0
LINE
  5
3057
100
AcDbEntity
  8
LJ
 62
     5
100
AcDbLine
 10
64153.713567
 20
37441.496931
 30
0.0
 11
64229.184378
 21
37405.324889
 31
0.0
  0
LINE
  5
3058
100
AcDbEntity
  8
LJ
 62
     5
100
AcDbLine
 10
64369.448634
 20
37504.457723
 30
0.0
 11
64293.977823
 21
37540.629765
 31
0.0
  0
LINE
  5
3059
100
AcDbEntity
  8
LJ
 62
     5
100
AcDbLine
 10
64370.773872
 20
37509.254987
 30
0.0
 11
64401.577351
 21
37500.443305
 31
0.0
  0
LINE
  5
305A
100
AcDbEntity
  8
LJ
 62
     5
100
AcDbLine
 10
64188.122658
 20
37561.686217
 30
0.0
 11
64157.418435
 21
37570.510086
 31
0.0
  0
LINE
  5
305B
100
AcDbEntity
  8
LJ
 62
     5
100
AcDbLine
 10
64186.797419
 20
37556.888953
 30
0.0
 11
64269.954941
 21
37547.553723
 31
0.0
  0
LINE
  5
305C
100
AcDbEntity
  8
LJ
 62
     5
100
AcDbLine
 10
65725.083609
 20
37109.524293
 30
0.0
 11
65724.14672
 21
37106.487479
 31
0.0
  0
LINE
  5
305D
100
AcDbEntity
  8
LJ
 62
     5
100
AcDbLine
 10
65725.083609
 20
37109.524293
 30
0.0
 11
65724.562962
 21
37109.661868
 31
0.0
  0
LINE
  5
305E
100
AcDbEntity
  8
LJ
 62
     5
100
AcDbLine
 10
65648.118447
 20
37131.609217
 30
0.0
 11
65647.655216
 21
37129.638071
 31
0.0
  0
LINE
  5
305F
100
AcDbEntity
  8
LJ
 62
     5
100
AcDbLine
 10
65673.913965
 20
37124.197655
 30
0.0
 11
65648.118447
 21
37131.609217
 31
0.0
  0
LINE
  5
3060
100
AcDbEntity
  8
LJ
 62
     5
100
AcDbLine
 10
65724.562962
 20
37109.661868
 30
0.0
 11
65673.913965
 21
37124.197655
 31
0.0
  0
LINE
  5
3061
100
AcDbEntity
  8
LJ
 62
     5
100
AcDbLine
 10
64755.318356
 20
38850.214479
 30
0.0
 11
64679.847545
 21
38886.386522
 31
0.0
  0
LINE
  5
3062
100
AcDbEntity
  8
LJ
 62
     5
100
AcDbLine
 10
64720.897078
 20
38730.124448
 30
0.0
 11
64751.601302
 21
38721.300579
 31
0.0
  0
LINE
  5
3063
100
AcDbEntity
  8
LJ
 62
     5
100
AcDbLine
 10
64756.742849
 20
38855.02393
 30
0.0
 11
64720.897078
 21
38730.124448
 31
0.0
  0
LINE
  5
3064
100
AcDbEntity
  8
LJ
 62
     5
100
AcDbLine
 10
64787.447073
 20
38846.200062
 30
0.0
 11
64751.601302
 21
38721.300579
 31
0.0
  0
LINE
  5
3065
100
AcDbEntity
  8
LJ
 62
     5
100
AcDbLine
 10
64756.742849
 20
38855.02393
 30
0.0
 11
64787.447073
 21
38846.200062
 31
0.0
  0
LINE
  5
3066
100
AcDbEntity
  8
LJ
 62
     5
100
AcDbLine
 10
64722.222317
 20
38734.921712
 30
0.0
 11
64639.064795
 21
38744.256942
 31
0.0
  0
LINE
  5
3067
100
AcDbEntity
  8
LJ
 62
     5
100
AcDbLine
 10
64574.091635
 20
38907.455161
 30
0.0
 11
64543.288157
 21
38916.266842
 31
0.0
  0
LINE
  5
3068
100
AcDbEntity
  8
LJ
 62
     5
100
AcDbLine
 10
64543.288157
 20
38916.266842
 30
0.0
 11
64507.454573
 21
38791.268105
 31
0.0
  0
LINE
  5
3069
100
AcDbEntity
  8
LJ
 62
     5
100
AcDbLine
 10
64538.258051
 20
38782.456424
 30
0.0
 11
64507.454573
 21
38791.268105
 31
0.0
  0
LINE
  5
306A
100
AcDbEntity
  8
LJ
 62
     5
100
AcDbLine
 10
64574.091635
 20
38907.455161
 30
0.0
 11
64538.258051
 21
38782.456424
 31
0.0
  0
ARC
  5
306B
100
AcDbEntity
  8
LJ
 62
     5
100
AcDbCircle
 10
64647.450823
 20
38818.734083
 30
0.0
 40
74.9999
100
AcDbArc
 50
244.403
 51
83.5975
  0
LINE
  5
306C
100
AcDbEntity
  8
LJ
 62
     5
100
AcDbLine
 10
64572.667142
 20
38902.64571
 30
0.0
 11
64655.824664
 21
38893.310479
 31
0.0
  0
LINE
  5
306D
100
AcDbEntity
  8
LJ
 62
     5
100
AcDbLine
 10
64539.583289
 20
38787.253688
 30
0.0
 11
64615.054101
 21
38751.081645
 31
0.0
  0
ARC
  5
306E
100
AcDbEntity
  8
LJ
 62
     5
100
AcDbCircle
 10
64647.450823
 20
38818.734083
 30
0.0
 40
75.0
100
AcDbArc
 50
64.4019
 51
263.598
  0
LINE
  5
306F
100
AcDbEntity
  8
LJ
 62
     5
100
AcDbLine
 10
67133.17887
 20
38053.161668
 30
0.0
 11
66775.318447
 21
36805.046189
 31
0.0
  0
LINE
  5
3070
100
AcDbEntity
  8
LJ
 62
     5
100
AcDbLine
 10
67188.005229
 20
38037.426029
 30
0.0
 11
66830.144806
 21
36789.310551
 31
0.0
  0
LINE
  5
3071
100
AcDbEntity
  8
LJ
 62
     5
100
AcDbLine
 10
66675.676703
 20
38184.384293
 30
0.0
 11
66317.81628
 21
36936.268814
 31
0.0
  0
LINE
  5
3072
100
AcDbEntity
  8
LJ
 62
     5
100
AcDbLine
 10
66620.862531
 20
38200.020677
 30
0.0
 11
66262.98992
 21
36952.004453
 31
0.0
  0
LINE
  5
3073
100
AcDbEntity
  8
LJ
 62
     5
100
AcDbLine
 10
71935.179865
 20
36676.214823
 30
0.0
 11
71577.319442
 21
35428.099345
 31
0.0
  0
LINE
  5
3074
100
AcDbEntity
  8
LJ
 62
     5
100
AcDbLine
 10
71990.006225
 20
36660.479184
 30
0.0
 11
71632.145801
 21
35412.363706
 31
0.0
  0
LINE
  5
3075
100
AcDbEntity
  8
LJ
 62
     5
100
AcDbLine
 10
72180.737689
 20
36792.507623
 30
0.0
 11
71724.613105
 21
35201.662098
 31
0.0
  0
LINE
  5
3076
100
AcDbEntity
  8
LJ
 62
     5
100
AcDbLine
 10
72171.851127
 20
36761.493448
 30
0.0
 11
71732.71254
 21
35230.060851
 31
0.0
  0
POINT
  5
3077
100
AcDbEntity
  8
LJ
 62
     5
100
AcDbPoint
 10
71952.349699
 20
35995.948909
 30
0.0
  0
LINE
  5
3078
100
AcDbEntity
  8
LJ
 62
     5
100
AcDbLine
 10
71926.37009
 20
36731.553669
 30
0.0
 11
70983.485031
 21
35545.504253
 31
0.0
  0
LINE
  5
3079
100
AcDbEntity
  8
LJ
 62
     5
100
AcDbLine
 10
71540.500368
 20
35385.796912
 30
0.0
 11
71369.354753
 21
36891.26101
 31
0.0
  0
LINE
  5
307A
100
AcDbEntity
  8
LJ
 62
     5
100
AcDbLine
 10
71899.380663
 20
35350.470098
 30
0.0
 11
71863.534892
 21
35225.570615
 31
0.0
  0
LINE
  5
307B
100
AcDbEntity
  8
LJ
 62
     5
100
AcDbLine
 10
71686.025225
 20
35411.725197
 30
0.0
 11
71650.191641
 21
35286.72646
 31
0.0
  0
LINE
  5
307C
100
AcDbEntity
  8
LJ
 62
     5
100
AcDbLine
 10
71655.221747
 20
35420.536878
 30
0.0
 11
71619.388162
 21
35295.538141
 31
0.0
  0
ARC
  5
307D
100
AcDbEntity
  8
LJ
 62
     5
100
AcDbCircle
 10
71759.384413
 20
35323.004119
 30
0.0
 40
75.0
100
AcDbArc
 50
244.402
 51
83.598
  0
ARC
  5
307E
100
AcDbEntity
  8
LJ
 62
     5
100
AcDbCircle
 10
71759.384413
 20
35323.004119
 30
0.0
 40
74.9999
100
AcDbArc
 50
67.7211
 51
260.279
  0
LINE
  5
307F
100
AcDbEntity
  8
LJ
 62
     5
100
AcDbLine
 10
71856.332902
 20
35227.608101
 30
0.0
 11
71863.534892
 21
35225.570615
 31
0.0
  0
LINE
  5
3080
100
AcDbEntity
  8
LJ
 62
     5
100
AcDbLine
 10
71832.830668
 20
35234.394483
 30
0.0
 11
71863.534892
 21
35225.570615
 31
0.0
  0
LINE
  5
3081
100
AcDbEntity
  8
LJ
 62
     5
100
AcDbLine
 10
71619.482521
 20
35310.360121
 30
0.0
 11
71616.767845
 21
35311.135062
 31
0.0
  0
LINE
  5
3082
100
AcDbEntity
  8
LJ
 62
     5
100
AcDbLine
 10
71650.191641
 20
35286.72646
 30
0.0
 11
71619.388162
 21
35295.538141
 31
0.0
  0
LINE
  5
3083
100
AcDbEntity
  8
LJ
 62
     5
100
AcDbLine
 10
71651.516879
 20
35291.523724
 30
0.0
 11
71726.987691
 21
35255.351681
 31
0.0
  0
LINE
  5
3084
100
AcDbEntity
  8
LJ
 62
     5
100
AcDbLine
 10
71832.830668
 20
35234.394483
 30
0.0
 11
71746.695635
 21
35249.106928
 31
0.0
  0
LINE
  5
3085
100
AcDbEntity
  8
LJ
 62
     5
100
AcDbLine
 10
71660.069752
 20
35351.513209
 30
0.0
 11
71881.457777
 21
35288.020356
 31
0.0
  0
LINE
  5
3086
100
AcDbEntity
  8
LJ
 62
     5
100
AcDbLine
 10
71868.676439
 20
35359.293966
 30
0.0
 11
71899.380663
 21
35350.470098
 31
0.0
  0
LINE
  5
3087
100
AcDbEntity
  8
LJ
 62
     5
100
AcDbLine
 10
71684.600732
 20
35406.915746
 30
0.0
 11
71767.758254
 21
35397.580515
 31
0.0
  0
LINE
  5
3088
100
AcDbEntity
  8
LJ
 62
     5
100
AcDbLine
 10
71686.025225
 20
35411.725197
 30
0.0
 11
71655.221747
 21
35420.536878
 31
0.0
  0
LINE
  5
3089
100
AcDbEntity
  8
LJ
 62
     5
100
AcDbLine
 10
71868.676439
 20
35359.293966
 30
0.0
 11
71787.840601
 21
35392.389243
 31
0.0
  0
LINE
  5
308A
100
AcDbEntity
  8
LJ
 62
     5
100
AcDbLine
 10
72254.546161
 20
36705.050722
 30
0.0
 11
72285.250385
 21
36696.226854
 31
0.0
  0
LINE
  5
308B
100
AcDbEntity
  8
LJ
 62
     5
100
AcDbLine
 10
72285.250385
 20
36696.226854
 30
0.0
 11
72249.503868
 21
36571.339559
 31
0.0
  0
LINE
  5
308C
100
AcDbEntity
  8
LJ
 62
     5
100
AcDbLine
 10
72218.70039
 20
36580.15124
 30
0.0
 11
72249.503868
 21
36571.339559
 31
0.0
  0
LINE
  5
308D
100
AcDbEntity
  8
LJ
 62
     5
100
AcDbLine
 10
72037.485856
 20
36637.292667
 30
0.0
 11
72112.857413
 21
36601.108438
 31
0.0
  0
LINE
  5
308E
100
AcDbEntity
  8
LJ
 62
     5
100
AcDbLine
 10
72070.470454
 20
36752.672502
 30
0.0
 11
72153.627976
 21
36743.337271
 31
0.0
  0
LINE
  5
308F
100
AcDbEntity
  8
LJ
 62
     5
100
AcDbLine
 10
72036.061363
 20
36632.483216
 30
0.0
 11
72005.257885
 21
36641.294897
 31
0.0
  0
LINE
  5
3090
100
AcDbEntity
  8
LJ
 62
     5
100
AcDbLine
 10
72071.894947
 20
36757.481953
 30
0.0
 11
72041.091469
 21
36766.293634
 31
0.0
  0
LINE
  5
3091
100
AcDbEntity
  8
LJ
 62
     5
100
AcDbLine
 10
72041.091469
 20
36766.293634
 30
0.0
 11
72005.257885
 21
36641.294897
 31
0.0
  0
LINE
  5
3092
100
AcDbEntity
  8
LJ
 62
     5
100
AcDbLine
 10
72071.894947
 20
36757.481953
 30
0.0
 11
72036.061363
 21
36632.483216
 31
0.0
  0
ARC
  5
3093
100
AcDbEntity
  8
LJ
 62
     5
100
AcDbCircle
 10
72145.254135
 20
36668.760876
 30
0.0
 40
75.0
100
AcDbArc
 50
244.402
 51
83.598
  0
ARC
  5
3094
100
AcDbEntity
  8
LJ
 62
     5
100
AcDbCircle
 10
72145.254135
 20
36668.760876
 30
0.0
 40
74.9999
100
AcDbArc
 50
67.7211
 51
260.279
  0
LINE
  5
3095
100
AcDbEntity
  8
LJ
 62
     5
100
AcDbLine
 10
72254.546161
 20
36705.050722
 30
0.0
 11
72173.710323
 21
36738.145999
 31
0.0
  0
LINE
  5
3096
100
AcDbEntity
  8
LJ
 62
     5
100
AcDbLine
 10
72218.70039
 20
36580.15124
 30
0.0
 11
72132.664611
 21
36594.875871
 31
0.0
  0
LINE
  5
3097
100
AcDbEntity
  8
SUPORT2
 62
     5
100
AcDbLine
 10
78830.439806
 20
44537.273493
 30
0.0
 11
78587.689123
 21
42263.680009
 31
0.0
  0
LINE
  5
3098
100
AcDbEntity
  8
SUPORT2
 62
     5
100
AcDbLine
 10
78979.792582
 20
44523.626571
 30
0.0
 11
78606.032556
 21
39611.201849
 31
0.0
  0
LINE
  5
3099
100
AcDbEntity
  8
SUPORT2
 62
     5
100
AcDbLine
 10
82765.62019
 20
37185.396791
 30
0.0
 11
86581.341123
 21
38863.978346
 31
0.0
  0
LINE
  5
309A
100
AcDbEntity
  8
SUPORT2
 62
     5
100
AcDbLine
 10
83216.342395
 20
41581.103917
 30
0.0
 11
86479.984684
 21
39175.604985
 31
0.0
  0
LINE
  5
309B
100
AcDbEntity
  8
SUPORT2
 62
     5
100
AcDbLine
 10
83260.4623
 20
41647.995203
 30
0.0
 11
86527.478994
 21
39240.042012
 31
0.0
  0
LINE
  5
309C
100
AcDbEntity
  8
SUPORT2
 62
     5
100
AcDbLine
 10
82891.361836
 20
36912.945165
 30
0.0
 11
86643.921825
 21
38727.661268
 31
0.0
  0
LINE
  5
309D
100
AcDbEntity
  8
SUPORT2
 62
     5
100
AcDbLine
 10
82895.569675
 20
36903.842194
 30
0.0
 11
82761.525295
 21
37194.414653
 31
0.0
  0
LINE
  5
309E
100
AcDbEntity
  8
SUPORT2
 62
     5
100
AcDbLine
 10
82884.654781
 20
36898.874792
 30
0.0
 11
82750.6104
 21
37189.447251
 31
0.0
  0
LINE
  5
309F
100
AcDbEntity
  8
SUPORT2
 62
     5
100
AcDbLine
 10
78604.638692
 20
39595.252644
 30
0.0
 11
78117.637911
 21
35091.949398
 31
0.0
  0
LINE
  5
30A0
100
AcDbEntity
  8
SUPORT2
 62
     5
100
AcDbLine
 10
78305.834114
 20
39622.532571
 30
0.0
 11
77968.285136
 21
35105.59632
 31
0.0
  0
LINE
  5
30A1
100
AcDbEntity
  8
SUPORT2
 62
     5
100
AcDbLine
 10
82754.81824
 20
37180.344279
 30
0.0
 11
78428.050026
 21
35100.634942
 31
0.0
  0
LINE
  5
30A2
100
AcDbEntity
  8
SUPORT2
 62
     5
100
AcDbLine
 10
82880.446942
 20
36907.977763
 30
0.0
 11
78490.913891
 21
34964.458642
 31
0.0
  0
ARC
  5
30A3
100
AcDbEntity
  8
SUPORT2
 62
     5
100
AcDbCircle
 10
78018.285726
 20
34828.861897
 30
0.0
 40
80.0
100
AcDbArc
 50
175.894
 51
296.209
  0
POINT
  5
30A4
100
AcDbEntity
  8
SUPORT2
  6
CONTINUOUS
 62
     5
100
AcDbPoint
 10
78018.264513
 20
34828.830437
 30
0.0
  0
LINE
  5
30A5
100
AcDbEntity
  8
SUPORT2
 62
     5
100
AcDbLine
 10
78270.708758
 20
35021.668776
 30
0.0
 11
78162.274933
 21
35031.574102
 31
0.0
  0
ARC
  5
30A6
100
AcDbEntity
  8
SUPORT2
 62
     5
100
AcDbCircle
 10
78263.428437
 20
34941.980026
 30
0.0
 40
84.9999
100
AcDbArc
 50
114.777
 51
294.777
  0
LINE
  5
30A7
100
AcDbEntity
  8
SUPORT2
 62
     5
100
AcDbLine
 10
78270.708758
 20
35021.668776
 30
0.0
 11
78117.467708
 21
35035.678082
 31
0.0
  0
LINE
  5
30A8
100
AcDbEntity
  8
SUPORT2
 62
     5
100
AcDbLine
 10
78051.821578
 20
34756.222261
 30
0.0
 11
78296.964289
 21
34869.34039
 31
0.0
  0
LINE
  5
30A9
100
AcDbEntity
  8
SUPORT2
 62
     5
100
AcDbLine
 10
78122.657232
 20
35091.443024
 30
0.0
 11
77963.279732
 21
35106.003666
 31
0.0
  0
LINE
  5
30AA
100
AcDbEntity
  8
SUPORT2
 62
     5
100
AcDbLine
 10
78122.657232
 20
35091.443024
 30
0.0
 11
78117.467708
 21
35035.678082
 31
0.0
  0
LINE
  5
30AB
100
AcDbEntity
  8
SUPORT2
 62
     5
100
AcDbLine
 10
78017.203936
 20
34788.417741
 30
0.0
 11
78048.701417
 21
34802.134837
 31
0.0
  0
LINE
  5
30AC
100
AcDbEntity
  8
SUPORT2
 62
     5
100
AcDbLine
 10
77963.279732
 20
35106.003666
 30
0.0
 11
77938.596975
 21
34836.142218
 31
0.0
  0
LINE
  5
30AD
100
AcDbEntity
  8
SUPORT2
  6
DASHED
 62
     5
100
AcDbLine
 10
78048.701417
 20
34802.134837
 30
0.0
 11
78099.224889
 21
34824.180896
 31
0.0
  0
LINE
  5
30AE
100
AcDbEntity
  8
SUPORT2
  6
CENTER
 62
     5
100
AcDbLine
 10
78109.950297
 20
34820.43715
 30
0.0
 11
77914.150199
 21
34838.361482
 31
0.0
  0
ARC
  5
30AF
100
AcDbEntity
  8
SUPORT2
 62
     5
100
AcDbCircle
 10
78263.428437
 20
34941.980026
 30
0.0
 40
80.0
100
AcDbArc
 50
294.776
 51
84.7768
  0
LINE
  5
30B0
100
AcDbEntity
  8
SUPORT2
 62
     5
100
AcDbLine
 10
78423.842187
 20
35109.737913
 30
0.0
 11
78227.739152
 21
35019.164188
 31
0.0
  0
LINE
  5
30B1
100
AcDbEntity
  8
SUPORT2
 62
     5
100
AcDbLine
 10
78495.12173
 20
34955.355671
 30
0.0
 11
78299.004778
 21
34864.880973
 31
0.0
  0
LINE
  5
30B2
100
AcDbEntity
  8
SUPORT2
 62
     5
100
AcDbLine
 10
78495.12173
 20
34955.355671
 30
0.0
 11
78423.842187
 21
35109.737913
 31
0.0
  0
LINE
  5
30B3
100
AcDbEntity
  8
SUPORT2
 62
     5
100
AcDbLine
 10
82895.569675
 20
36903.842194
 30
0.0
 11
82884.654781
 21
36898.874792
 31
0.0
  0
LINE
  5
30B4
100
AcDbEntity
  8
SUPORT2
  6
DASHED
 62
     5
100
AcDbLine
 10
82883.045185
 20
36931.165025
 30
0.0
 11
82886.057207
 21
36924.822493
 31
0.0
  0
ARC
  5
30B5
100
AcDbEntity
  8
SUPORT2
  6
DASHED
 62
     5
100
AcDbCircle
 10
82655.617571
 20
36803.369522
 30
0.0
 40
2.0
100
AcDbArc
 50
204.777
 51
294.777
  0
ARC
  5
30B6
100
AcDbEntity
  8
SUPORT2
 62
     5
100
AcDbCircle
 10
82655.617571
 20
36803.369522
 30
0.0
 40
4.3
100
AcDbArc
 50
204.777
 51
294.777
  0
ARC
  5
30B7
100
AcDbEntity
  8
SUPORT2
  6
DASHED
 62
     5
100
AcDbCircle
 10
82655.617571
 20
36803.369522
 30
0.0
 40
2.0
100
AcDbArc
 50
204.777
 51
294.777
  0
ARC
  5
30B8
100
AcDbEntity
  8
SUPORT2
 62
     5
100
AcDbCircle
 10
82655.617571
 20
36803.369522
 30
0.0
 40
4.3
100
AcDbArc
 50
204.777
 51
294.777
  0
LINE
  5
30B9
100
AcDbEntity
  8
SUPORT2
 62
     5
100
AcDbLine
 10
78587.617187
 20
42263.700152
 30
0.0
 11
78307.327006
 21
39638.495693
 31
0.0
  0
LINE
  5
30BA
100
AcDbEntity
  8
SUPORT2
 62
     5
100
AcDbLine
 10
82761.525295
 20
37194.414653
 30
0.0
 11
82750.6104
 21
37189.447251
 31
0.0
  0
LINE
  5
30BB
100
AcDbEntity
  8
SUPORT2
  6
DASHED
 62
     5
100
AcDbLine
 10
82774.035868
 20
37167.190848
 30
0.0
 11
82771.221899
 21
37173.561215
 31
0.0
  0
LINE
  5
30BC
100
AcDbEntity
  8
SUPORT2
 62
     5
100
AcDbLine
 10
85133.118066
 20
40168.3184
 30
0.0
 11
85129.557384
 21
40163.47572
 31
0.0
  0
LINE
  5
30BD
100
AcDbEntity
  8
SUPORT2
 62
     5
100
AcDbLine
 10
85052.670809
 20
40227.700205
 30
0.0
 11
85049.110127
 21
40222.857526
 31
0.0
  0
LINE
  5
30BE
100
AcDbEntity
  8
SUPORT2
 62
     5
100
AcDbLine
 10
85049.110127
 20
40222.857526
 30
0.0
 11
85129.557384
 21
40163.47572
 31
0.0
  0
LINE
  5
30BF
100
AcDbEntity
  8
SUPORT2
 62
     5
100
AcDbLine
 10
86666.735464
 20
38716.225016
 30
0.0
 11
86652.521639
 21
38709.582186
 31
0.0
  0
LINE
  5
30C0
100
AcDbEntity
  8
SUPORT2
 62
     5
100
AcDbLine
 10
86666.735464
 20
38716.225016
 30
0.0
 11
86586.955133
 21
38888.700257
 31
0.0
  0
ARC
  5
30C1
100
AcDbEntity
  8
SUPORT2
 62
     5
100
AcDbCircle
 10
86889.068259
 20
38923.383816
 30
0.0
 40
272.5
100
AcDbArc
 50
318.79499
 51
118.642
  0
LINE
  5
30C2
100
AcDbEntity
  8
SUPORT2
 62
     5
100
AcDbLine
 10
86957.63224
 20
39067.831836
 30
0.0
 11
86727.151321
 21
39177.320629
 31
0.0
  0
ARC
  5
30C3
100
AcDbEntity
  8
SUPORT2
 62
     5
100
AcDbCircle
 10
86679.521059
 20
39077.924461
 30
0.0
 40
110.0
100
AcDbArc
 50
64.5989
 51
185.374
  0
ARC
  5
30C4
100
AcDbEntity
  8
SUPORT2
 62
     5
100
AcDbCircle
 10
86420.616796
 20
39095.058701
 30
0.0
 40
100.0
100
AcDbArc
 50
32.2797
 51
53.6072
  0
LINE
  5
30C5
100
AcDbEntity
  8
SUPORT2
 62
     5
100
AcDbLine
 10
86504.997258
 20
39148.522498
 30
0.0
 11
86572.551773
 21
39041.482564
 31
0.0
  0
LINE
  5
30C6
100
AcDbEntity
  8
SUPORT2
 62
     5
100
AcDbLine
 10
86586.955133
 20
38888.700257
 30
0.0
 11
86572.741309
 21
38882.057427
 31
0.0
  0
LINE
  5
30C7
100
AcDbEntity
  8
SUPORT2
  6
DASHED
 62
     5
100
AcDbLine
 10
86613.133567
 20
38795.83988
 30
0.0
 11
86608.295704
 21
38801.521876
 31
0.0
  0
LINE
  5
30C8
100
AcDbEntity
  8
SUPORT2
 62
     5
100
AcDbLine
 10
86586.955133
 20
38888.700257
 30
0.0
 11
86569.895706
 21
39067.56676
 31
0.0
  0
LINE
  5
30C9
100
AcDbEntity
  8
SUPORT2
 62
     5
100
AcDbLine
 10
86652.521639
 20
38709.582186
 30
0.0
 11
86572.741309
 21
38882.057427
 31
0.0
  0
LINE
  5
30CA
100
AcDbEntity
  8
SUPORT2
 62
     5
100
AcDbLine
 10
86561.04427
 20
39223.956856
 30
0.0
 11
86708.018268
 21
39184.124033
 31
0.0
  0
ARC
  5
30CB
100
AcDbEntity
  8
SUPORT2
 62
     5
100
AcDbCircle
 10
86586.8608
 20
39320.489269
 30
0.0
 40
100.0
100
AcDbArc
 50
233.607
 51
254.935
  0
ARC
  5
30CC
100
AcDbEntity
  8
SUPORT2
 62
     5
100
AcDbCircle
 10
86889.068259
 20
38923.383816
 30
0.0
 40
160.0
100
AcDbArc
 50
312.864265
 51
64.5988
  0
ARC
  5
30CD
100
AcDbEntity
  8
SUPORT2
 62
     5
100
AcDbCircle
 10
86889.068259
 20
38923.383816
 30
0.0
 40
160.0
100
AcDbArc
 50
281.202
 51
312.864265
  0
ARC
  5
30CE
100
AcDbEntity
  8
SUPORT2
 62
     5
100
AcDbCircle
 10
86889.068259
 20
38923.383816
 30
0.0
 40
272.5
100
AcDbArc
 50
227.158
 51
318.79499
  0
LINE
  5
30CF
100
AcDbEntity
  8
SUPORT2
 62
     5
100
AcDbLine
 10
86666.735464
 20
38716.225016
 30
0.0
 11
86920.220533
 21
38766.391536
 31
0.0
  0
LINE
  5
30D0
100
AcDbEntity
  8
SUPORT2
 62
     5
100
AcDbLine
 10
79292.107634
 20
44473.504642
 30
0.0
 11
82823.847138
 21
41870.495474
 31
0.0
  0
LINE
  5
30D1
100
AcDbEntity
  8
SUPORT2
 62
     5
100
AcDbLine
 10
79339.601945
 20
44537.941669
 30
0.0
 11
82871.256339
 21
41934.819557
 31
0.0
  0
LINE
  5
30D2
100
AcDbEntity
  8
SUPORT2
 62
     5
100
AcDbLine
 10
83182.975173
 20
41597.216908
 30
0.0
 11
83035.307987
 21
41636.95231
 31
0.0
  0
ARC
  5
30D3
100
AcDbEntity
  8
SUPORT2
 62
     5
100
AcDbCircle
 10
83063.904223
 20
41743.165799
 30
0.0
 40
110.0
100
AcDbArc
 50
32.2785
 51
254.936
  0
CIRCLE
  5
30D4
100
AcDbEntity
  8
SUPORT2
 62
     5
100
AcDbCircle
 10
83063.904223
 20
41743.165799
 30
0.0
 40
97.9999
  0
LINE
  5
30D5
100
AcDbEntity
  8
SUPORT2
  6
DASHED
 62
     5
100
AcDbLine
 10
83122.094495
 20
41822.031839
 30
0.0
 11
83081.870867
 21
41851.722742
 31
0.0
  0
LINE
  5
30D6
100
AcDbEntity
  8
SUPORT2
 62
     5
100
AcDbLine
 10
83088.99223
 20
41861.408101
 30
0.0
 11
83129.215859
 21
41831.717198
 31
0.0
  0
ARC
  5
30D7
100
AcDbEntity
  8
SUPORT2
 62
     5
100
AcDbCircle
 10
83023.680594
 20
41772.856702
 30
0.0
 40
110.0
100
AcDbArc
 50
53.6072
 51
74.9343
  0
LINE
  5
30D8
100
AcDbEntity
  8
SUPORT2
  6
CENTER
 62
     5
100
AcDbLine
 10
83134.47873
 20
41838.81876
 30
0.0
 11
82994.194728
 21
41648.543253
 31
0.0
  0
ARC
  5
30D9
100
AcDbEntity
  8
SUPORT2
 62
     5
100
AcDbCircle
 10
82930.624227
 20
42015.365841
 30
0.0
 40
100.0
100
AcDbArc
 50
233.607
 51
254.934
  0
ARC
  5
30DA
100
AcDbEntity
  8
SUPORT2
 62
     5
100
AcDbCircle
 10
82764.47925
 20
41789.94919
 30
0.0
 40
100.0
100
AcDbArc
 50
32.2802
 51
53.6072
  0
ARC
  5
30DB
100
AcDbEntity
  8
SUPORT2
 62
     5
100
AcDbCircle
 10
83023.680594
 20
41772.856702
 30
0.0
 40
110.0
100
AcDbArc
 50
212.28
 51
233.607
  0
LINE
  5
30DC
100
AcDbEntity
  8
SUPORT2
 62
     5
100
AcDbLine
 10
82849.071684
 20
41843.341795
 30
0.0
 11
82930.661249
 21
41714.038497
 31
0.0
  0
LINE
  5
30DD
100
AcDbEntity
  8
SUPORT2
 62
     5
100
AcDbLine
 10
82904.609644
 20
41918.805593
 30
0.0
 11
83052.27683
 21
41879.070191
 31
0.0
  0
LINE
  5
30DE
100
AcDbEntity
  8
SUPORT2
 62
     5
100
AcDbLine
 10
82958.467986
 20
41684.31922
 30
0.0
 11
82998.691614
 21
41654.628318
 31
0.0
  0
LINE
  5
30DF
100
AcDbEntity
  8
SUPORT2
 62
     5
100
AcDbLine
 10
83238.626078
 20
41672.595597
 30
0.0
 11
83156.937486
 21
41801.884978
 31
0.0
  0
ARC
  5
30E0
100
AcDbEntity
  8
SUPORT2
 62
     5
100
AcDbCircle
 10
83323.119484
 20
41725.974285
 30
0.0
 40
100.0
100
AcDbArc
 50
212.279
 51
233.607
  0
ARC
  5
30E1
100
AcDbEntity
  8
SUPORT2
 62
     5
100
AcDbCircle
 10
83157.059617
 20
41500.670578
 30
0.0
 40
100.0
100
AcDbArc
 50
53.6072
 51
74.936
  0
LINE
  5
30E2
100
AcDbEntity
  8
SUPORT2
 62
     5
100
AcDbLine
 10
78825.420485
 20
44537.779866
 30
0.0
 11
78790.019315
 21
44150.180889
 31
0.0
  0
CIRCLE
  5
30E3
100
AcDbEntity
  8
SUPORT2
  6
CENTER
 62
     5
100
AcDbCircle
 10
78846.214697
 20
43886.13207
 30
0.0
 40
250.0
  0
CIRCLE
  5
30E4
100
AcDbEntity
  8
SUPORT2
  6
CENTER
 62
     5
100
AcDbCircle
 10
78796.152253
 20
43338.43457
 30
0.0
 40
250.0
  0
CIRCLE
  5
30E5
100
AcDbEntity
  8
SUPORT2
  6
CENTER
 62
     5
100
AcDbCircle
 10
78796.152253
 20
43338.43457
 30
0.0
 40
250.0
  0
LINE
  5
30E6
100
AcDbEntity
  8
SUPORT2
 62
     5
100
AcDbLine
 10
78975.347518
 20
44864.222594
 30
0.0
 11
79218.901859
 21
44716.128477
 31
0.0
  0
ARC
  5
30E7
100
AcDbEntity
  8
SUPORT2
 62
     5
100
AcDbCircle
 10
78928.588686
 20
44787.36707
 30
0.0
 40
89.9999
100
AcDbArc
 50
58.6994
 51
173.128
  0
LINE
  5
30E8
100
AcDbEntity
  8
SUPORT2
 62
     5
100
AcDbLine
 10
79130.440195
 20
44525.914936
 30
0.0
 11
78800.02037
 21
44556.123371
 31
0.0
  0
LINE
  5
30E9
100
AcDbEntity
  8
SUPORT2
 62
     5
100
AcDbLine
 10
79011.704909
 20
44520.739815
 30
0.0
 11
78798.612588
 21
44540.273193
 31
0.0
  0
LINE
  5
30EA
100
AcDbEntity
  8
SUPORT2
 62
     5
100
AcDbLine
 10
78831.018924
 20
44730.029983
 30
0.0
 11
78839.220465
 21
44798.134203
 31
0.0
  0
LINE
  5
30EB
100
AcDbEntity
  8
SUPORT2
 62
     5
100
AcDbLine
 10
78800.02037
 20
44556.123371
 30
0.0
 11
78798.612588
 21
44540.273193
 31
0.0
  0
LINE
  5
30EC
100
AcDbEntity
  8
SUPORT2
 62
     5
100
AcDbLine
 10
78810.045095
 20
44555.209651
 30
0.0
 11
78812.35268
 21
44581.183581
 31
0.0
  0
LINE
  5
30ED
100
AcDbEntity
  8
SUPORT2
  6
DASHED
 62
     5
100
AcDbLine
 10
78810.045095
 20
44555.209651
 30
0.0
 11
78831.018924
 21
44730.029983
 31
0.0
  0
CIRCLE
  5
30EE
100
AcDbEntity
  8
SUPORT2
 62
     5
100
AcDbCircle
 10
78928.588686
 20
44787.36707
 30
0.0
 40
35.0
  0
ARC
  5
30EF
100
AcDbEntity
  8
SUPORT2
 62
     5
100
AcDbCircle
 10
79398.969833
 20
44618.487953
 30
0.0
 40
100.0
100
AcDbArc
 50
212.279
 51
233.607
  0
ARC
  5
30F0
100
AcDbEntity
  8
SUPORT2
 62
     5
100
AcDbCircle
 10
79232.824856
 20
44393.071302
 30
0.0
 40
100.0
100
AcDbArc
 50
53.6072
 51
74.9356
  0
LINE
  5
30F1
100
AcDbEntity
  8
SUPORT2
 62
     5
100
AcDbLine
 10
79013.1978
 20
44536.702937
 30
0.0
 11
79011.704909
 21
44520.739815
 31
0.0
  0
LINE
  5
30F2
100
AcDbEntity
  8
SUPORT2
 62
     5
100
AcDbLine
 10
79314.391317
 20
44564.996322
 30
0.0
 11
79218.901859
 21
44716.128477
 31
0.0
  0
LINE
  5
30F3
100
AcDbEntity
  8
SUPORT2
 62
     5
100
AcDbLine
 10
79258.839439
 20
44489.63155
 30
0.0
 11
79111.172253
 21
44529.366952
 31
0.0
  0
POINT
  5
30F4
100
AcDbEntity
  8
SUPORTL
 62
     5
100
AcDbPoint
 10
76950.961391
 20
34562.675628
 30
0.0
  0
ARC
  5
30F5
100
AcDbEntity
  8
SUPORTL
 62
     5
100
AcDbCircle
 10
78841.689743
 20
32972.846506
 30
0.0
 40
150.0
100
AcDbArc
 50
230.058
 51
19.1874
  0
POINT
  5
30F6
100
AcDbEntity
  8
0
  6
CONTINUOUS
 62
     5
100
AcDbPoint
 10
77774.362495
 20
32706.773141
 30
0.0
  0
LINE
  5
30F7
100
AcDbEntity
  8
SUPORTL
 62
     5
100
AcDbLine
 10
79029.965828
 20
33019.841886
 30
0.0
 11
77639.942843
 21
32673.257308
 31
0.0
  0
LINE
  5
30F8
100
AcDbEntity
  8
SUPORTL
 62
     5
100
AcDbLine
 10
78519.435163
 20
33047.12723
 30
0.0
 11
77876.670925
 21
32886.899662
 31
0.0
  0
LINE
  5
30F9
100
AcDbEntity
  8
SUPORTL
 62
     5
100
AcDbLine
 10
78509.901697
 20
33055.024256
 30
0.0
 11
77872.610408
 21
32896.173938
 31
0.0
  0
LINE
  5
30FA
100
AcDbEntity
  8
SUPORTL
 62
     5
100
AcDbLine
 10
77498.129039
 20
33921.780858
 30
0.0
 11
78371.651851
 21
33190.360222
 31
0.0
  0
LINE
  5
30FB
100
AcDbEntity
  8
SUPORTL
 62
     5
100
AcDbLine
 10
77243.13003
 20
34480.975735
 30
0.0
 11
77987.181752
 21
34885.867547
 31
0.0
  0
LINE
  5
30FC
100
AcDbEntity
  8
SUPORTL
 62
     5
100
AcDbLine
 10
77031.169313
 20
34658.463907
 30
0.0
 11
78541.803336
 21
33393.514089
 31
0.0
  0
LINE
  5
30FD
100
AcDbEntity
  8
SUPORTL
 62
     5
100
AcDbLine
 10
77427.199928
 20
33896.347195
 30
0.0
 11
77774.109702
 21
33087.793978
 31
0.0
  0
LINE
  5
30FE
100
AcDbEntity
  8
SUPORTL
 62
     5
100
AcDbLine
 10
77165.352287
 20
33783.897815
 30
0.0
 11
77512.199271
 21
32975.452577
 31
0.0
  0
LINE
  5
30FF
100
AcDbEntity
  8
SUPORTL
 62
     5
100
AcDbLine
 10
77767.163218
 20
34042.165204
 30
0.0
 11
77151.559287
 21
33778.073457
 31
0.0
  0
LINE
  5
3100
100
AcDbEntity
  8
SUPORTL
 62
     5
100
AcDbLine
 10
76835.993751
 20
34513.39668
 30
0.0
 11
77151.559287
 21
33778.073457
 31
0.0
  0
ARC
  5
3101
100
AcDbEntity
  8
SUPORTL
 62
     5
100
AcDbCircle
 10
76950.945304
 20
34562.673049
 30
0.0
 40
125.0
100
AcDbArc
 50
50.0581
 51
203.221
  0
LINE
  5
3102
100
AcDbEntity
  8
SUPORTL
 62
     5
100
AcDbLine
 10
77566.973021
 20
32809.681409
 30
0.0
 11
77699.332012
 21
32605.59065
 31
0.0
  0
LINE
  5
3103
100
AcDbEntity
  8
SUPORTL
 62
     5
100
AcDbLine
 10
77512.199271
 20
32975.452577
 30
0.0
 11
77498.383098
 21
32969.513766
 31
0.0
  0
LINE
  5
3104
100
AcDbEntity
  8
SUPORTL
 62
     5
100
AcDbLine
 10
77498.383098
 20
32969.513766
 30
0.0
 11
77566.973021
 21
32809.681409
 31
0.0
  0
ARC
  5
3105
100
AcDbEntity
  8
SUPORTL
 62
     5
100
AcDbCircle
 10
77870.057622
 20
32658.491181
 30
0.0
 40
10.0
100
AcDbArc
 50
205.9
 51
284.0
  0
ARC
  5
3106
100
AcDbEntity
  8
SUPORTL
 62
     5
100
AcDbCircle
 10
77717.659568
 20
32620.434864
 30
0.0
 40
10.0
100
AcDbArc
 50
284.0
 51
5.717
  0
LINE
  5
3107
100
AcDbEntity
  8
SUPORTL
 62
     5
100
AcDbLine
 10
77861.030602
 20
32654.05802
 30
0.0
 11
77823.801472
 21
32730.7929
 31
0.0
  0
LINE
  5
3108
100
AcDbEntity
  8
SUPORTL
 62
     5
100
AcDbLine
 10
77727.609403
 20
32621.455048
 30
0.0
 11
77719.622065
 21
32701.276614
 31
0.0
  0
LINE
  5
3109
100
AcDbEntity
  8
SUPORTL
 62
     5
100
AcDbLine
 10
77720.05713
 20
32610.7549
 30
0.0
 11
77699.431266
 21
32605.602837
 31
0.0
  0
LINE
  5
310A
100
AcDbEntity
  8
SUPORTL
 62
     5
100
AcDbLine
 10
77893.775829
 20
32654.048589
 30
0.0
 11
77872.455184
 21
32648.811217
 31
0.0
  0
LINE
  5
310B
100
AcDbEntity
  8
SUPORTL
 62
     5
100
AcDbLine
 10
77874.174108
 20
32896.567439
 30
0.0
 11
77876.670925
 21
32886.899662
 31
0.0
  0
ARC
  5
310C
100
AcDbEntity
  8
SUPORTL
 62
     5
100
AcDbCircle
 10
77774.358347
 20
32706.788373
 30
0.0
 40
55.0
100
AcDbArc
 50
25.9
 51
185.717
  0
LINE
  5
310D
100
AcDbEntity
  8
SUPORTL
 62
     5
100
AcDbLine
 10
77876.670925
 20
32886.899662
 30
0.0
 11
77893.775829
 21
32654.048589
 31
0.0
  0
LINE
  5
310E
100
AcDbEntity
  8
SUPORTL
 62
     5
100
AcDbLine
 10
77749.127347
 20
32808.068414
 30
0.0
 11
77798.396659
 21
32610.298687
 31
0.0
  0
LINE
  5
310F
100
AcDbEntity
  8
SUPORTL
 62
     5
100
AcDbLine
 10
77787.903807
 20
33093.723304
 30
0.0
 11
77774.109702
 21
33087.793978
 31
0.0
  0
LINE
  5
3110
100
AcDbEntity
  8
SUPORTL
 62
     5
100
AcDbLine
 10
77787.903807
 20
33093.723304
 30
0.0
 11
77876.670925
 21
32886.899662
 31
0.0
  0
LINE
  5
3111
100
AcDbEntity
  8
SUPORTL
 62
     5
100
AcDbLine
 10
77957.616844
 20
33882.690544
 30
0.0
 11
78082.694323
 21
34820.218262
 31
0.0
  0
ARC
  5
3112
100
AcDbEntity
  8
SUPORTL
 62
     5
100
AcDbCircle
 10
78018.264513
 20
34828.830437
 30
0.0
 40
65.0
100
AcDbArc
 50
352.407
 51
118.547
  0
LINE
  5
3113
100
AcDbEntity
  8
SUPORTL
 62
     5
100
AcDbLine
 10
77993.684698
 20
34927.268655
 30
0.0
 11
78036.536139
 21
34755.510674
 31
0.0
  0
CIRCLE
  5
3114
100
AcDbEntity
  8
SUPORTL
 62
     5
100
AcDbCircle
 10
78018.264513
 20
34828.830437
 30
0.0
 40
30.25
  0
LINE
  5
3115
100
AcDbEntity
  8
SUPORTL
 62
     5
100
AcDbLine
 10
78107.916059
 20
34851.122373
 30
0.0
 11
77946.706959
 21
34810.976686
 31
0.0
  0
CIRCLE
  5
3116
100
AcDbEntity
  8
SUPORTL
 62
     5
100
AcDbCircle
 10
78018.264513
 20
34828.830437
 30
0.0
 40
30.0
  0
ARC
  5
3117
100
AcDbEntity
  8
SUPORTL
 62
     5
100
AcDbCircle
 10
78613.824641
 20
33455.877173
 30
0.0
 40
55.0
100
AcDbArc
 50
256.552
 51
320.058
  0
LINE
  5
3118
100
AcDbEntity
  8
SUPORTL
 62
     5
100
AcDbLine
 10
78557.865131
 20
33412.735856
 30
0.0
 11
78601.044026
 21
33402.421155
 31
0.0
  0
LINE
  5
3119
100
AcDbEntity
  8
SUPORTL
 62
     5
100
AcDbLine
 10
78557.865131
 20
33412.735856
 30
0.0
 11
78541.803336
 21
33393.514089
 31
0.0
  0
LINE
  5
311A
100
AcDbEntity
  8
SUPORTL
 62
     5
100
AcDbLine
 10
78362.011978
 20
33178.823816
 30
0.0
 11
78745.386106
 21
32857.8529
 31
0.0
  0
LINE
  5
311B
100
AcDbEntity
  8
SUPORTL
 62
     5
100
AcDbLine
 10
78371.651851
 20
33190.360222
 30
0.0
 11
78362.011978
 21
33178.823816
 31
0.0
  0
LINE
  5
311C
100
AcDbEntity
  8
SUPORTL
 62
     5
100
AcDbLine
 10
78744.666998
 20
33568.562787
 30
0.0
 11
78787.506252
 21
33396.904061
 31
0.0
  0
LINE
  5
311D
100
AcDbEntity
  8
SUPORTL
 62
     5
100
AcDbLine
 10
78821.232112
 20
33488.194675
 30
0.0
 11
78983.333751
 21
33022.176265
 31
0.0
  0
CIRCLE
  5
311E
100
AcDbEntity
  8
SUPORTL
 62
     5
100
AcDbCircle
 10
78769.246813
 20
33470.124569
 30
0.0
 40
25.0
  0
CIRCLE
  5
311F
100
AcDbEntity
  8
SUPORTL
 62
     5
100
AcDbCircle
 10
78769.246813
 20
33470.124569
 30
0.0
 40
27.5
  0
ARC
  5
3120
100
AcDbEntity
  8
SUPORTL
 62
     5
100
AcDbCircle
 10
78769.246813
 20
33470.124569
 30
0.0
 40
55.0
100
AcDbArc
 50
19.1874
 51
140.058
  0
LINE
  5
3121
100
AcDbEntity
  8
SUPORTL
 62
     5
100
AcDbLine
 10
78858.898359
 20
33492.416505
 30
0.0
 11
78697.689259
 21
33452.270818
 31
0.0
  0
LINE
  5
3122
100
AcDbEntity
  8
SUPORTL
 62
     5
100
AcDbLine
 10
78727.027931
 20
33505.442637
 30
0.0
 11
78656.043524
 21
33420.559105
 31
0.0
  0
CIRCLE
  5
3123
100
AcDbEntity
  8
SUPORTL
 62
     5
100
AcDbCircle
 10
78841.689743
 20
32972.846506
 30
0.0
 40
45.0
  0
LINE
  5
3124
100
AcDbEntity
  8
SUPORTL
 62
     5
100
AcDbLine
 10
78801.544056
 20
33134.055606
 30
0.0
 11
78876.855743
 21
32831.679929
 31
0.0
  0
LINE
  5
3133
100
AcDbEntity
  8
0
100
AcDbLine
 10
7441.413223
 20
50711.613035
 30
0.0
 11
7441.354251
 21
54369.920842
 31
0.0
  0
LINE
  5
3134
100
AcDbEntity
  8
0
100
AcDbLine
 10
8016.413223
 20
50711.613035
 30
0.0
 11
8016.354251
 21
54369.920842
 31
0.0
  0
LINE
  5
3136
100
AcDbEntity
  8
0
100
AcDbLine
 10
7064.052304
 20
28532.806117
 30
0.0
 11
7097.981407
 21
32823.053786
 31
0.0
  0
LINE
  5
3137
100
AcDbEntity
  8
0
100
AcDbLine
 10
7631.953304
 20
28532.806117
 30
0.0
 11
7597.965745
 21
32823.05719
 31
0.0
  0
LINE
  5
3139
100
AcDbEntity
  8
0
100
AcDbLine
 10
10074.994871
 20
5988.2847
 30
0.0
 11
10112.479403
 21
9469.518568
 31
0.0
  0
LINE
  5
313A
100
AcDbEntity
  8
0
100
AcDbLine
 10
10649.994383
 20
5988.2847
 30
0.0
 11
10612.464912
 21
9466.826824
 31
0.0
  0
ARC
  5
313B
100
AcDbEntity
  8
HOOK
100
AcDbCircle
 10
7747.913223
 20
49853.112035
 30
0.0
 40
176.0
100
AcDbArc
 50
183.652
 51
270.0
  0
ARC
  5
313C
100
AcDbEntity
  8
HOOK
100
AcDbCircle
 10
7747.913223
 20
49868.112035
 30
0.0
 40
191.0
100
AcDbArc
 50
270.0
 51
67.6805
  0
TEXT
  5
313D
100
AcDbEntity
  8
HOOK
100
AcDbText
 10
7766.529941
 20
49746.795161
 30
0.0
 40
30.0
  1
25t
100
AcDbText
  0
LINE
  5
313E
100
AcDbEntity
  8
HOOK
  6
CENTER
100
AcDbLine
 10
7728.913223
 20
51061.853035
 30
0.0
 11
7728.913223
 21
49755.229035
 31
0.0
  0
LINE
  5
313F
100
AcDbEntity
  8
HOOK
100
AcDbLine
 10
7936.811223
 20
51018.723035
 30
0.0
 11
8076.361223
 21
50702.393035
 31
0.0
  0
LINE
  5
3140
100
AcDbEntity
  8
HOOK
100
AcDbLine
 10
7381.467223
 20
50702.393035
 30
0.0
 11
7521.021223
 21
51018.723035
 31
0.0
  0
CIRCLE
  5
3141
100
AcDbEntity
  8
HOOK
  6
CENTER
100
AcDbCircle
 10
7728.913223
 20
50711.613035
 30
0.0
 40
287.5
  0
POINT
  5
3142
100
AcDbEntity
  8
HOOK
100
AcDbPoint
 10
7728.913223
 20
50711.613035
 30
0.0
  0
LINE
  5
3143
100
AcDbEntity
  8
HOOK
100
AcDbLine
 10
7817.096223
 20
50073.583035
 30
0.0
 11
8075.941223
 21
50610.433035
 31
0.0
  0
LINE
  5
3144
100
AcDbEntity
  8
HOOK
100
AcDbLine
 10
7640.731223
 20
50073.583035
 30
0.0
 11
7381.891223
 21
50610.433035
 31
0.0
  0
LINE
  5
3145
100
AcDbEntity
  8
HOOK
  6
CENTER
100
AcDbLine
 10
7642.347223
 20
50166.612035
 30
0.0
 11
7827.845223
 21
50166.612035
 31
0.0
  0
ARC
  5
3146
100
AcDbEntity
  8
HOOK
100
AcDbCircle
 10
7881.413223
 20
50102.449035
 30
0.0
 40
200.0
100
AcDbArc
 50
197.493
 51
225.0
  0
LINE
  5
3147
100
AcDbEntity
  8
HOOK
100
AcDbLine
 10
7667.754223
 20
50056.612035
 30
0.0
 11
7790.073223
 21
50056.612035
 31
0.0
  0
ARC
  5
3148
100
AcDbEntity
  8
HOOK
100
AcDbCircle
 10
7728.913223
 20
49873.112035
 30
0.0
 40
69.9999
100
AcDbArc
 50
198.925
 51
45.0
  0
LINE
  5
3149
100
AcDbEntity
  8
HOOK
  6
CENTER
100
AcDbLine
 10
7628.913223
 20
49873.112035
 30
0.0
 11
7828.913223
 21
49873.112035
 31
0.0
  0
LINE
  5
314A
100
AcDbEntity
  8
HOOK
  6
DASHED
100
AcDbLine
 10
7663.914223
 20
50064.452035
 30
0.0
 11
7680.680223
 21
50054.772035
 31
0.0
  0
ARC
  5
314B
100
AcDbEntity
  8
HOOK
100
AcDbCircle
 10
7669.680223
 20
50035.719035
 30
0.0
 40
22.0
100
AcDbArc
 50
17.493
 51
59.9999
  0
ARC
  5
314C
100
AcDbEntity
  8
HOOK
100
AcDbCircle
 10
7272.880223
 20
49822.797035
 30
0.0
 40
299.999
100
AcDbArc
 50
3.65156
 51
20.0247
  0
ARC
  5
314D
100
AcDbEntity
  8
HOOK
100
AcDbCircle
 10
7378.914223
 20
49753.110035
 30
0.0
 40
299.999
100
AcDbArc
 50
18.9251
 51
41.9998
  0
ARC
  5
314E
100
AcDbEntity
  8
HOOK
100
AcDbCircle
 10
7581.050223
 20
49935.112035
 30
0.0
 40
28.0
100
AcDbArc
 50
41.9998
 51
200.025
  0
ARC
  5
314F
100
AcDbEntity
  8
HOOK
100
AcDbCircle
 10
7667.754223
 20
50086.612035
 30
0.0
 40
30.0
100
AcDbArc
 50
205.741
 51
270.0
  0
LINE
  5
3150
100
AcDbEntity
  8
HOOK
100
AcDbLine
 10
7739.992223
 20
49961.028035
 30
0.0
 11
7778.411223
 21
49922.609035
 31
0.0
  0
ARC
  5
3151
100
AcDbEntity
  8
HOOK
100
AcDbCircle
 10
7790.073223
 20
50086.612035
 30
0.0
 40
30.0
100
AcDbArc
 50
270.0
 51
334.259
  0
ARC
  5
3152
100
AcDbEntity
  8
HOOK
100
AcDbCircle
 10
7847.413223
 20
50110.483035
 30
0.0
 40
70.9999
100
AcDbArc
 50
213.951
 51
247.681
  0
LINE
  5
3153
100
AcDbEntity
  8
HOOK
  6
CENTER
100
AcDbLine
 10
7340.750223
 20
50711.613035
 30
0.0
 11
8116.811223
 21
50711.613035
 31
0.0
  0
ARC
  5
3154
100
AcDbEntity
  8
HOOK
100
AcDbCircle
 10
7408.913223
 20
50690.283035
 30
0.0
 40
30.0
100
AcDbArc
 50
156.194
 51
180.0
  0
ARC
  5
3155
100
AcDbEntity
  8
HOOK
100
AcDbCircle
 10
7408.913223
 20
50623.463035
 30
0.0
 40
30.0
100
AcDbArc
 50
180.0
 51
205.741
  0
LINE
  5
3156
100
AcDbEntity
  8
HOOK
100
AcDbLine
 10
7378.913223
 20
50690.283035
 30
0.0
 11
7378.913223
 21
50623.463035
 31
0.0
  0
ARC
  5
3157
100
AcDbEntity
  8
HOOK
100
AcDbCircle
 10
8048.911223
 20
50690.283035
 30
0.0
 40
30.0
100
AcDbArc
 50
0.0
 51
23.8059
  0
ARC
  5
3158
100
AcDbEntity
  8
HOOK
100
AcDbCircle
 10
8048.911223
 20
50623.463035
 30
0.0
 40
30.0
100
AcDbArc
 50
334.259
 51
0.0
  0
LINE
  5
3159
100
AcDbEntity
  8
HOOK
100
AcDbLine
 10
8078.911223
 20
50690.283035
 30
0.0
 11
8078.911223
 21
50623.463035
 31
0.0
  0
LINE
  5
315A
100
AcDbEntity
  8
HOOK
100
AcDbLine
 10
7548.468223
 20
51036.613035
 30
0.0
 11
7909.361223
 21
51036.613035
 31
0.0
  0
ARC
  5
315B
100
AcDbEntity
  8
HOOK
100
AcDbCircle
 10
7548.468223
 20
51006.613035
 30
0.0
 40
30.0
100
AcDbArc
 50
90.0
 51
156.194
  0
ARC
  5
315C
100
AcDbEntity
  8
HOOK
100
AcDbCircle
 10
7909.361223
 20
51006.613035
 30
0.0
 40
30.0
100
AcDbArc
 50
23.8059
 51
89.9999
  0
LINE
  5
315D
100
AcDbEntity
  8
HOOK
100
AcDbLine
 10
7278.903304
 20
27472.106117
 30
0.0
 11
7278.903304
 21
27708.106117
 31
0.0
  0
LINE
  5
315E
100
AcDbEntity
  8
HOOK
100
AcDbLine
 10
7417.203304
 20
27708.106117
 30
0.0
 11
7417.203304
 21
27472.106117
 31
0.0
  0
LINE
  5
315F
100
AcDbEntity
  8
HOOK
100
AcDbLine
 10
7348.003304
 20
28886.006117
 30
0.0
 11
7348.003304
 21
27216.106117
 31
0.0
  0
LINE
  5
3160
100
AcDbEntity
  8
HOOK
100
AcDbLine
 10
7598.603304
 20
27563.806117
 30
0.0
 11
7646.903304
 21
27418.406117
 31
0.0
  0
ARC
  5
3161
100
AcDbEntity
  8
HOOK
100
AcDbCircle
 10
7511.003304
 20
27373.306117
 30
0.0
 40
143.21
100
AcDbArc
 50
270.0
 51
18.3734
  0
ARC
  5
3162
100
AcDbEntity
  8
HOOK
100
AcDbCircle
 10
7185.103304
 20
27373.306117
 30
0.0
 40
143.21
100
AcDbArc
 50
161.627
 51
270.0
  0
ARC
  5
3163
100
AcDbEntity
  8
HOOK
100
AcDbCircle
 10
7575.203304
 20
27556.006117
 30
0.0
 40
24.6913
100
AcDbArc
 50
18.3734
 51
191.293
  0
LINE
  5
3164
100
AcDbEntity
  8
HOOK
100
AcDbLine
 10
7551.003304
 20
27551.206117
 30
0.0
 11
7563.903304
 21
27486.606117
 31
0.0
  0
LINE
  5
3165
100
AcDbEntity
  8
HOOK
100
AcDbLine
 10
7545.903304
 20
27548.906117
 30
0.0
 11
7551.203304
 21
27551.506117
 31
0.0
  0
ARC
  5
3166
100
AcDbEntity
  8
HOOK
100
AcDbCircle
 10
7491.203304
 20
27472.106117
 30
0.0
 40
74.074
100
AcDbArc
 50
180.0
 51
11.2933
  0
LINE
  5
3167
100
AcDbEntity
  8
HOOK
100
AcDbLine
 10
7144.903304
 20
27551.506117
 30
0.0
 11
7150.203304
 21
27548.906117
 31
0.0
  0
LINE
  5
3168
100
AcDbEntity
  8
HOOK
100
AcDbLine
 10
7132.203304
 20
27486.606117
 30
0.0
 11
7145.103304
 21
27551.206117
 31
0.0
  0
ARC
  5
3169
100
AcDbEntity
  8
HOOK
100
AcDbCircle
 10
7120.903304
 20
27556.006117
 30
0.0
 40
24.6913
100
AcDbArc
 50
348.707
 51
161.627
  0
ARC
  5
316A
100
AcDbEntity
  8
HOOK
100
AcDbCircle
 10
7204.803304
 20
27472.106117
 30
0.0
 40
74.074
100
AcDbArc
 50
168.707
 51
360.0
  0
LINE
  5
316B
100
AcDbEntity
  8
HOOK
100
AcDbLine
 10
7049.203304
 20
27418.406117
 30
0.0
 11
7097.403304
 21
27563.806117
 31
0.0
  0
TEXT
  5
316C
100
AcDbEntity
  8
HOOK
100
AcDbText
 10
7414.356813
 20
27273.549858
 30
0.0
 40
50.0
  1
80t
  7
EXTFONT
100
AcDbText
  0
LINE
  5
316D
100
AcDbEntity
  8
HOOK
100
AcDbLine
 10
7185.103304
 20
27230.106117
 30
0.0
 11
7511.003304
 21
27230.106117
 31
0.0
  0
LINE
  5
316E
100
AcDbEntity
  8
HOOK
100
AcDbLine
 10
7005.103304
 20
28591.806117
 30
0.0
 11
7151.803304
 21
28839.306117
 31
0.0
  0
POINT
  5
316F
100
AcDbEntity
  8
HOOK
100
AcDbPoint
 10
7348.003304
 20
28532.806117
 30
0.0
  0
LINE
  5
3170
100
AcDbEntity
  8
HOOK
100
AcDbLine
 10
7544.303304
 20
28839.306117
 30
0.0
 11
7690.903304
 21
28591.806117
 31
0.0
  0
CIRCLE
  5
3171
100
AcDbEntity
  8
HOOK
100
AcDbCircle
 10
7348.003304
 20
28532.806117
 30
0.0
 40
283.95
  0
CIRCLE
  5
3172
100
AcDbEntity
  8
HOOK
100
AcDbCircle
 10
7348.003304
 20
28532.806117
 30
0.0
 40
283.951
  0
LINE
  5
3173
100
AcDbEntity
  8
HOOK
100
AcDbLine
 10
7534.103304
 20
27783.806117
 30
0.0
 11
7693.203304
 21
28446.606117
 31
0.0
  0
LINE
  5
3174
100
AcDbEntity
  8
HOOK
100
AcDbLine
 10
6971.103304
 20
28532.806117
 30
0.0
 11
7723.003304
 21
28532.806117
 31
0.0
  0
LINE
  5
3175
100
AcDbEntity
  8
HOOK
100
AcDbLine
 10
7162.003304
 20
27783.806117
 30
0.0
 11
7002.903304
 21
28446.606117
 31
0.0
  0
LINE
  5
3176
100
AcDbEntity
  8
HOOK
100
AcDbLine
 10
7278.903304
 20
27708.906117
 30
0.0
 11
7277.103304
 21
27707.606117
 31
0.0
  0
LINE
  5
3177
100
AcDbEntity
  8
HOOK
100
AcDbLine
 10
7438.103304
 20
27708.106117
 30
0.0
 11
7258.003304
 21
27708.106117
 31
0.0
  0
ARC
  5
3178
100
AcDbEntity
  8
HOOK
100
AcDbCircle
 10
7438.103304
 20
27806.906117
 30
0.0
 40
98.7654
100
AcDbArc
 50
270.0
 51
346.504
  0
ARC
  5
3179
100
AcDbEntity
  8
HOOK
100
AcDbCircle
 10
7258.003304
 20
27806.906117
 30
0.0
 40
98.7654
100
AcDbArc
 50
193.496
 51
270.0
  0
CIRCLE
  5
317A
100
AcDbEntity
  8
HOOK
100
AcDbCircle
 10
7348.003304
 20
27881.006117
 30
0.0
 40
81.4815
  0
ARC
  5
317B
100
AcDbEntity
  8
HOOK
100
AcDbCircle
 10
7022.103304
 20
28581.706117
 30
0.0
 40
19.7531
100
AcDbArc
 50
149.349
 51
180.0
  0
ARC
  5
317C
100
AcDbEntity
  8
HOOK
100
AcDbCircle
 10
7022.103304
 20
28451.206117
 30
0.0
 40
19.7531
100
AcDbArc
 50
180.0
 51
193.496
  0
LINE
  5
317D
100
AcDbEntity
  8
HOOK
100
AcDbLine
 10
7002.303304
 20
28451.206117
 30
0.0
 11
7002.303304
 21
28581.706117
 31
0.0
  0
ARC
  5
317E
100
AcDbEntity
  8
HOOK
100
AcDbCircle
 10
7674.003304
 20
28581.706117
 30
0.0
 40
19.7531
100
AcDbArc
 50
360.0
 51
30.6507
  0
ARC
  5
317F
100
AcDbEntity
  8
HOOK
100
AcDbCircle
 10
7674.003304
 20
28451.206117
 30
0.0
 40
19.7531
100
AcDbArc
 50
346.504
 51
360.0
  0
LINE
  5
3180
100
AcDbEntity
  8
HOOK
100
AcDbLine
 10
7693.703304
 20
28581.706117
 30
0.0
 11
7693.703304
 21
28451.206117
 31
0.0
  0
LINE
  5
3181
100
AcDbEntity
  8
HOOK
100
AcDbLine
 10
7177.303304
 20
28853.806117
 30
0.0
 11
7518.803304
 21
28853.806117
 31
0.0
  0
ARC
  5
3182
100
AcDbEntity
  8
HOOK
100
AcDbCircle
 10
7518.803304
 20
28824.106117
 30
0.0
 40
29.6296
100
AcDbArc
 50
30.6506
 51
89.9999
  0
ARC
  5
3183
100
AcDbEntity
  8
HOOK
100
AcDbCircle
 10
7177.303304
 20
28824.106117
 30
0.0
 40
29.6296
100
AcDbArc
 50
90.0001
 51
149.349
  0
LINE
  5
3184
100
AcDbEntity
  8
HOOK
  6
CONTINUOUS
100
AcDbLine
 10
10454.993407
 20
4737.283723
 30
0.0
 11
10454.993407
 21
5048.2847
 31
0.0
  0
LINE
  5
3185
100
AcDbEntity
  8
HOOK
  6
CONTINUOUS
100
AcDbLine
 10
10269.994627
 20
5048.2847
 30
0.0
 11
10269.994627
 21
4737.283723
 31
0.0
  0
LINE
  5
3186
100
AcDbEntity
  8
HOOK
  6
CENTER
100
AcDbLine
 10
10362.494627
 20
6476.427034
 30
0.0
 11
10362.494627
 21
4339.211946
 31
0.0
  0
ARC
  5
3187
100
AcDbEntity
  8
HOOK
  6
CONTINUOUS
100
AcDbCircle
 10
10554.992186
 20
4737.283723
 30
0.0
 40
99.999741
100
AcDbArc
 50
179.999964
 51
10.923586
  0
ARC
  5
3188
100
AcDbEntity
  8
HOOK
  6
CONTINUOUS
100
AcDbCircle
 10
10594.992186
 20
4597.286164
 30
0.0
 40
189.99939
100
AcDbArc
 50
270.000073
 51
0.000073
  0
LINE
  5
3189
100
AcDbEntity
  8
HOOK
  6
CENTER
100
AcDbLine
 10
10029.379393
 20
4737.283723
 30
0.0
 11
10695.707762
 21
4737.283723
 31
0.0
  0
ARC
  5
318A
100
AcDbEntity
  8
HOOK
  6
CONTINUOUS
100
AcDbCircle
 10
10129.997069
 20
4597.286164
 30
0.0
 40
189.99939
100
AcDbArc
 50
179.999909
 51
269.999946
  0
ARC
  5
318B
100
AcDbEntity
  8
HOOK
  6
CONTINUOUS
100
AcDbCircle
 10
10379.906737
 20
4603.902375
 30
0.0
 40
439.998779
100
AcDbArc
 50
143.950007
 51
181.516758
  0
LINE
  5
318C
100
AcDbEntity
  8
HOOK
  6
CONTINUOUS
100
AcDbLine
 10
10071.754624
 20
4755.912618
 30
0.0
 11
10086.893006
 21
4835.772184
 31
0.0
  0
ARC
  5
318D
100
AcDbEntity
  8
HOOK
  6
CONTINUOUS
100
AcDbCircle
 10
10052.497801
 20
4842.283723
 30
0.0
 40
34.999924
100
AcDbArc
 50
349.266242
 51
144.038799
  0
LINE
  5
318E
100
AcDbEntity
  8
HOOK
  6
CONTINUOUS
100
AcDbLine
 10
10129.997069
 20
4407.288606
 30
0.0
 11
10594.992186
 21
4407.288606
 31
0.0
  0
TEXT
  5
318F
100
AcDbEntity
  8
HOOK
100
AcDbText
 10
10130.956395
 20
4492.796823
 30
0.0
 40
50.0
  1
120t
100
AcDbText
  0
LINE
  5
3190
100
AcDbEntity
  8
HOOK
  6
CENTER
100
AcDbLine
 10
10554.992186
 20
4560.38675
 30
0.0
 11
10554.992186
 21
4865.008332
 31
0.0
  0
LINE
  5
3191
100
AcDbEntity
  8
HOOK
  6
CENTER
100
AcDbLine
 10
10169.997801
 20
4865.008332
 30
0.0
 11
10169.997801
 21
4560.38675
 31
0.0
  0
ARC
  5
3192
100
AcDbEntity
  8
HOOK
  6
CONTINUOUS
100
AcDbCircle
 10
10169.997069
 20
4737.283723
 30
0.0
 40
99.999741
100
AcDbArc
 50
169.076306
 51
0.0
  0
ARC
  5
3193
100
AcDbEntity
  8
HOOK
  6
CONTINUOUS
100
AcDbCircle
 10
10345.081297
 20
4603.902375
 30
0.0
 40
439.998779
100
AcDbArc
 50
358.483224
 51
36.049991
  0
LINE
  5
3194
100
AcDbEntity
  8
HOOK
  6
CONTINUOUS
100
AcDbLine
 10
10638.10562
 20
4835.769727
 30
0.0
 11
10653.243093
 21
4755.914958
 31
0.0
  0
ARC
  5
3195
100
AcDbEntity
  8
HOOK
  6
CONTINUOUS
100
AcDbCircle
 10
10672.491453
 20
4842.283723
 30
0.0
 40
34.999924
100
AcDbArc
 50
35.961199
 51
190.733688
  0
LINE
  5
3196
100
AcDbEntity
  8
HOOK
  6
CONTINUOUS
100
AcDbLine
 10
10016.619112
 20
6030.313246
 30
0.0
 11
10173.806764
 21
6298.457157
 31
0.0
  0
CIRCLE
  5
3197
100
AcDbEntity
  8
HOOK
  6
CENTER
100
AcDbCircle
 10
10362.494627
 20
5988.2847
 30
0.0
 40
287.499756
  0
LINE
  5
3198
100
AcDbEntity
  8
HOOK
  6
CONTINUOUS
100
AcDbLine
 10
10551.188903
 20
6298.459049
 30
0.0
 11
10708.377914
 21
6030.312821
 31
0.0
  0
POINT
  5
3199
100
AcDbEntity
  8
HOOK
100
AcDbPoint
 10
10362.494627
 20
5988.2847
 30
0.0
  0
ARC
  5
319A
100
AcDbEntity
  8
HOOK
100
AcDbCircle
 10
10539.962582
 20
5123.2847
 30
0.0
 40
75.0
100
AcDbArc
 50
270.0
 51
340.016893
  0
LINE
  5
319B
100
AcDbEntity
  8
HOOK
  6
PHANTOM
100
AcDbLine
 10
9803.680662
 20
5988.2847
 30
0.0
 11
10808.330077
 21
5988.2847
 31
0.0
  0
LINE
  5
319C
100
AcDbEntity
  8
HOOK
  6
CONTINUOUS
100
AcDbLine
 10
10012.49536
 20
6015.140168
 30
0.0
 11
10012.49536
 21
5399.423682
 31
0.0
  0
ARC
  5
319D
100
AcDbEntity
  8
HOOK
100
AcDbCircle
 10
10132.49536
 20
5399.423682
 30
0.0
 40
120.0
100
AcDbArc
 50
180.0
 51
199.983107
  0
ARC
  5
319E
100
AcDbEntity
  8
HOOK
100
AcDbCircle
 10
10185.026672
 20
5123.2847
 30
0.0
 40
75.0
100
AcDbArc
 50
199.983107
 51
270.0
  0
LINE
  5
319F
100
AcDbEntity
  8
HOOK
  6
CONTINUOUS
100
AcDbLine
 10
10185.026672
 20
5048.2847
 30
0.0
 11
10539.962582
 21
5048.2847
 31
0.0
  0
LINE
  5
31A0
100
AcDbEntity
  8
HOOK
100
AcDbLine
 10
10114.542165
 20
5097.653971
 30
0.0
 11
10019.720149
 21
5358.414514
 31
0.0
  0
CIRCLE
  5
31A1
100
AcDbEntity
  8
HOOK
  6
CONTINUOUS
100
AcDbCircle
 10
10362.494627
 20
5268.287141
 30
0.0
 40
114.999969
  0
ARC
  5
31A2
100
AcDbEntity
  8
HOOK
  6
CONTINUOUS
100
AcDbCircle
 10
10042.49536
 20
6015.140168
 30
0.0
 40
29.999969
100
AcDbArc
 50
149.621086
 51
180.000292
  0
LINE
  5
31A3
100
AcDbEntity
  8
HOOK
  6
CONTINUOUS
100
AcDbLine
 10
10712.494627
 20
5399.425698
 30
0.0
 11
10712.494627
 21
6015.140168
 31
0.0
  0
ARC
  5
31A4
100
AcDbEntity
  8
HOOK
100
AcDbCircle
 10
10592.494627
 20
5399.425698
 30
0.0
 40
120.0
100
AcDbArc
 50
340.016893
 51
0.0
  0
LINE
  5
31A5
100
AcDbEntity
  8
HOOK
100
AcDbLine
 10
10610.447089
 20
5097.653971
 30
0.0
 11
10705.269838
 21
5358.41653
 31
0.0
  0
ARC
  5
31A6
100
AcDbEntity
  8
HOOK
  6
CONTINUOUS
100
AcDbCircle
 10
10682.494627
 20
6015.140168
 30
0.0
 40
29.999969
100
AcDbArc
 50
359.99969
 51
30.378895
  0
ARC
  5
31A7
100
AcDbEntity
  8
HOOK
  6
CONTINUOUS
100
AcDbCircle
 10
10525.305907
 20
6283.282258
 30
0.0
 40
29.999969
100
AcDbArc
 50
30.379387
 51
90.000365
  0
ARC
  5
31A8
100
AcDbEntity
  8
HOOK
  6
CONTINUOUS
100
AcDbCircle
 10
10199.683348
 20
6283.282258
 30
0.0
 40
29.999969
100
AcDbArc
 50
89.9996
 51
149.620594
  0
LINE
  5
31A9
100
AcDbEntity
  8
HOOK
  6
CONTINUOUS
100
AcDbLine
 10
10199.683348
 20
6313.282258
 30
0.0
 11
10525.305907
 21
6313.282258
 31
0.0
  0
TEXT
  5
327A
100
AcDbEntity
  8
点
 62
     7
100
AcDbText
 10
65769.465021
 20
9868.765569
 30
0.0
 40
320.0
  1
ALL RIGHTS RESERVED,COPYRIGHT(C) TADANOSYSTEMS INC.
100
AcDbText
  0
LINE
  5
327B
100
AcDbEntity
  8
0
  6
CONTINUOUS
 62
     7
100
AcDbLine
 10
65818.935424
 20
9359.07683
 30
0.0
 11
66910.935424
 21
9359.07683
 31
0.0
  0
LINE
  5
327C
100
AcDbEntity
  8
0
  6
CONTINUOUS
 62
     7
100
AcDbLine
 10
65818.935424
 20
8519.07683
 30
0.0
 11
66910.935424
 21
9359.07683
 31
0.0
  0
LINE
  5
327D
100
AcDbEntity
  8
0
  6
CONTINUOUS
 62
     7
100
AcDbLine
 10
65818.935424
 20
9359.07683
 30
0.0
 11
65818.935424
 21
8519.07683
 31
0.0
  0
LINE
  5
327E
100
AcDbEntity
  8
0
  6
CONTINUOUS
 62
     7
100
AcDbLine
 10
66098.935424
 20
8239.07683
 30
0.0
 11
66938.935424
 21
9359.07683
 31
0.0
  0
LINE
  5
327F
100
AcDbEntity
  8
0
  6
CONTINUOUS
 62
     7
100
AcDbLine
 10
67386.935424
 20
9359.07683
 30
0.0
 11
67386.935424
 21
8799.07683
 31
0.0
  0
LINE
  5
3280
100
AcDbEntity
  8
0
  6
CONTINUOUS
 62
     7
100
AcDbLine
 10
66098.935424
 20
8239.07683
 30
0.0
 11
66938.935424
 21
8239.07683
 31
0.0
  0
LINE
  5
3281
100
AcDbEntity
  8
0
  6
CONTINUOUS
 62
     7
100
AcDbLine
 10
66938.935424
 20
8799.07683
 30
0.0
 11
67386.935424
 21
8799.07683
 31
0.0
  0
LINE
  5
3282
100
AcDbEntity
  8
0
  6
CONTINUOUS
 62
     7
100
AcDbLine
 10
66938.935424
 20
8799.07683
 30
0.0
 11
66938.935424
 21
8239.07683
 31
0.0
  0
LINE
  5
3283
100
AcDbEntity
  8
0
  6
CONTINUOUS
 62
     7
100
AcDbLine
 10
66938.935424
 20
9359.07683
 30
0.0
 11
67386.935424
 21
9359.07683
 31
0.0
  0
LINE
  5
3284
100
AcDbEntity
  8
0
  6
CONTINUOUS
 62
     7
100
AcDbLine
 10
69676.295424
 20
9359.07683
 30
0.0
 11
69867.575424
 21
9359.07683
 31
0.0
  0
LINE
  5
3285
100
AcDbEntity
  8
0
  6
CONTINUOUS
 62
     7
100
AcDbLine
 10
69718.215424
 20
8998.83683
 30
0.0
 11
69825.735424
 21
8998.83683
 31
0.0
  0
LINE
  5
3286
100
AcDbEntity
  8
0
  6
CONTINUOUS
 62
     7
100
AcDbLine
 10
69681.655424
 20
8880.67683
 30
0.0
 11
69862.215424
 21
8880.67683
 31
0.0
  0
LINE
  5
3287
100
AcDbEntity
  8
0
  6
CONTINUOUS
 62
     7
100
AcDbLine
 10
69760.055424
 20
9134.59683
 30
0.0
 11
69718.215424
 21
8998.83683
 31
0.0
  0
LINE
  5
3288
100
AcDbEntity
  8
0
  6
CONTINUOUS
 62
     7
100
AcDbLine
 10
69681.655424
 20
8880.67683
 30
0.0
 11
69656.615424
 21
8799.07683
 31
0.0
  0
ARC
  5
3289
100
AcDbEntity
  8
0
  6
CONTINUOUS
 62
     7
100
AcDbCircle
 10
69253.175424
 20
9038.27683
 30
0.0
 40
239.212
100
AcDbArc
 50
270.0
 51
341.626
  0
LINE
  5
328A
100
AcDbEntity
  8
0
  6
CONTINUOUS
 62
     7
100
AcDbLine
 10
68749.175424
 20
8880.67683
 30
0.0
 11
68774.215424
 21
8799.07683
 31
0.0
  0
LINE
  5
328B
100
AcDbEntity
  8
0
  6
CONTINUOUS
 62
     7
100
AcDbLine
 10
68568.695424
 20
8880.67683
 30
0.0
 11
68543.495424
 21
8799.07683
 31
0.0
  0
LINE
  5
328C
100
AcDbEntity
  8
0
  6
CONTINUOUS
 62
     7
100
AcDbLine
 10
69473.655424
 20
8799.07683
 30
0.0
 11
69676.295424
 21
9359.07683
 31
0.0
  0
LINE
  5
328D
100
AcDbEntity
  8
0
  6
CONTINUOUS
 62
     7
100
AcDbLine
 10
68754.615424
 20
9359.07683
 30
0.0
 11
68957.255424
 21
8799.07683
 31
0.0
  0
LINE
  5
328E
100
AcDbEntity
  8
0
  6
CONTINUOUS
 62
     7
100
AcDbLine
 10
68986.855424
 20
9359.07683
 30
0.0
 11
68986.855424
 21
8799.07683
 31
0.0
  0
LINE
  5
328F
100
AcDbEntity
  8
0
  6
CONTINUOUS
 62
     7
100
AcDbLine
 10
68563.255424
 20
9359.07683
 30
0.0
 11
68360.615424
 21
8799.07683
 31
0.0
  0
LINE
  5
3290
100
AcDbEntity
  8
0
  6
CONTINUOUS
 62
     7
100
AcDbLine
 10
68103.175424
 20
9207.07683
 30
0.0
 11
68103.175424
 21
8799.07683
 31
0.0
  0
LINE
  5
3291
100
AcDbEntity
  8
0
  6
CONTINUOUS
 62
     7
100
AcDbLine
 10
68280.455424
 20
9207.07683
 30
0.0
 11
68280.455424
 21
8799.07683
 31
0.0
  0
LINE
  5
3292
100
AcDbEntity
  8
0
  6
CONTINUOUS
 62
     7
100
AcDbLine
 10
68103.175424
 20
8799.07683
 30
0.0
 11
68280.455424
 21
8799.07683
 31
0.0
  0
LINE
  5
3293
100
AcDbEntity
  8
0
  6
CONTINUOUS
 62
     7
100
AcDbLine
 10
68360.615424
 20
8799.07683
 30
0.0
 11
68543.495424
 21
8799.07683
 31
0.0
  0
LINE
  5
3294
100
AcDbEntity
  8
0
  6
CONTINUOUS
 62
     7
100
AcDbLine
 10
68986.855424
 20
8799.07683
 30
0.0
 11
69253.175424
 21
8799.07683
 31
0.0
  0
LINE
  5
3295
100
AcDbEntity
  8
0
  6
CONTINUOUS
 62
     7
100
AcDbLine
 10
68774.215424
 20
8799.07683
 30
0.0
 11
68957.255424
 21
8799.07683
 31
0.0
  0
LINE
  5
3296
100
AcDbEntity
  8
0
  6
CONTINUOUS
 62
     7
100
AcDbLine
 10
69473.655424
 20
8799.07683
 30
0.0
 11
69656.615424
 21
8799.07683
 31
0.0
  0
LINE
  5
3297
100
AcDbEntity
  8
0
  6
CONTINUOUS
 62
     7
100
AcDbLine
 10
67946.935424
 20
9359.07683
 30
0.0
 11
68436.535424
 21
9359.07683
 31
0.0
  0
LINE
  5
3298
100
AcDbEntity
  8
0
  6
CONTINUOUS
 62
     7
100
AcDbLine
 10
67946.935424
 20
9359.07683
 30
0.0
 11
67946.935424
 21
9207.07683
 31
0.0
  0
LINE
  5
3299
100
AcDbEntity
  8
0
  6
CONTINUOUS
 62
     7
100
AcDbLine
 10
67946.935424
 20
9207.07683
 30
0.0
 11
68103.175424
 21
9207.07683
 31
0.0
  0
ARC
  5
329A
100
AcDbEntity
  8
0
  6
CONTINUOUS
 62
     7
100
AcDbCircle
 10
68951.575424
 20
9221.15683
 30
0.0
 40
293.7896
100
AcDbArc
 50
188.261
 51
197.133
  0
LINE
  5
329B
100
AcDbEntity
  8
0
  6
CONTINUOUS
 62
     7
100
AcDbLine
 10
68436.535424
 20
9359.07683
 30
0.0
 11
68436.535424
 21
9207.07683
 31
0.0
  0
ARC
  5
329C
100
AcDbEntity
  8
0
  6
CONTINUOUS
 62
     7
100
AcDbCircle
 10
68366.215424
 20
9221.15683
 30
0.0
 40
293.7904
100
AcDbArc
 50
342.867
 51
351.73902
  0
LINE
  5
329D
100
AcDbEntity
  8
0
  6
CONTINUOUS
 62
     7
100
AcDbLine
 10
68280.455424
 20
9207.07683
 30
0.0
 11
68436.535424
 21
9207.07683
 31
0.0
  0
LINE
  5
329E
100
AcDbEntity
  8
0
  6
CONTINUOUS
 62
     7
100
AcDbLine
 10
68657.015424
 20
9178.99683
 30
0.0
 11
68660.935424
 21
9178.99683
 31
0.0
  0
LINE
  5
329F
100
AcDbEntity
  8
0
  6
CONTINUOUS
 62
     7
100
AcDbLine
 10
68563.255424
 20
9359.07683
 30
0.0
 11
68754.615424
 21
9359.07683
 31
0.0
  0
LINE
  5
32A0
100
AcDbEntity
  8
0
  6
CONTINUOUS
 62
     7
100
AcDbLine
 10
68568.695424
 20
8880.67683
 30
0.0
 11
68749.175424
 21
8880.67683
 31
0.0
  0
LINE
  5
32A1
100
AcDbEntity
  8
0
  6
CONTINUOUS
 62
     7
100
AcDbLine
 10
68605.095424
 20
8998.83683
 30
0.0
 11
68712.615424
 21
8998.83683
 31
0.0
  0
LINE
  5
32A2
100
AcDbEntity
  8
0
  6
CONTINUOUS
 62
     7
100
AcDbLine
 10
68670.855424
 20
9134.59683
 30
0.0
 11
68712.615424
 21
8998.83683
 31
0.0
  0
LINE
  5
32A3
100
AcDbEntity
  8
0
  6
CONTINUOUS
 62
     7
100
AcDbLine
 10
68647.015424
 20
9134.59683
 30
0.0
 11
68605.095424
 21
8998.83683
 31
0.0
  0
ARC
  5
32A4
100
AcDbEntity
  8
0
  6
CONTINUOUS
 62
     7
100
AcDbCircle
 10
69225.815424
 20
9122.59683
 30
0.0
 40
98.4984
100
AcDbArc
 50
22.2133
 51
90.0
  0
LINE
  5
32A5
100
AcDbEntity
  8
0
  6
CONTINUOUS
 62
     7
100
AcDbLine
 10
68986.855424
 20
9359.07683
 30
0.0
 11
69266.615424
 21
9359.07683
 31
0.0
  0
ARC
  5
32A6
100
AcDbEntity
  8
0
  6
CONTINUOUS
 62
     7
100
AcDbCircle
 10
69225.015424
 20
9041.07683
 30
0.0
 40
101.3144
100
AcDbArc
 50
270.0
 51
340.276
  0
LINE
  5
32A7
100
AcDbEntity
  8
0
  6
CONTINUOUS
 62
     7
100
AcDbLine
 10
69152.775424
 20
9221.15683
 30
0.0
 11
69225.815424
 21
9221.15683
 31
0.0
  0
LINE
  5
32A8
100
AcDbEntity
  8
0
  6
CONTINUOUS
 62
     7
100
AcDbLine
 10
69152.775424
 20
8939.71683
 30
0.0
 11
69225.015424
 21
8939.71683
 31
0.0
  0
LINE
  5
32A9
100
AcDbEntity
  8
0
  6
CONTINUOUS
 62
     7
100
AcDbLine
 10
69152.775424
 20
9221.15683
 30
0.0
 11
69152.775424
 21
8939.71683
 31
0.0
  0
ARC
  5
32AA
100
AcDbEntity
  8
0
  6
CONTINUOUS
 62
     7
100
AcDbCircle
 10
69266.615424
 20
9139.55683
 30
0.0
 40
219.5136
100
AcDbArc
 50
23.9328
 51
90.0
  0
ARC
  5
32AB
100
AcDbEntity
  8
0
  6
CONTINUOUS
 62
     7
100
AcDbCircle
 10
69130.295424
 20
9079.07683
 30
0.0
 40
368.668
100
AcDbArc
 50
341.626
 51
23.9327
  0
ARC
  5
32AC
100
AcDbEntity
  8
0
  6
CONTINUOUS
 62
     7
100
AcDbCircle
 10
69119.015424
 20
9079.07683
 30
0.0
 40
213.884
100
AcDbArc
 50
340.276
 51
22.213
  0
ARC
  5
32AD
100
AcDbEntity
  8
0
  6
CONTINUOUS
 62
     7
100
AcDbCircle
 10
70939.895424
 20
9038.03683
 30
0.0
 40
247.6544
100
AcDbArc
 50
206.967
 51
252.685
  0
ARC
  5
32AE
100
AcDbEntity
  8
0
  6
CONTINUOUS
 62
     7
100
AcDbCircle
 10
70993.335424
 20
9038.03683
 30
0.0
 40
247.6568
100
AcDbArc
 50
287.263
 51
332.938
  0
LINE
  5
32AF
100
AcDbEntity
  8
0
  6
CONTINUOUS
 62
     7
100
AcDbLine
 10
69862.215424
 20
8880.67683
 30
0.0
 11
69887.335424
 21
8799.07683
 31
0.0
  0
LINE
  5
32B0
100
AcDbEntity
  8
0
  6
CONTINUOUS
 62
     7
100
AcDbLine
 10
70614.855424
 20
9359.07683
 30
0.0
 11
70614.855424
 21
8799.07683
 31
0.0
  0
LINE
  5
32B1
100
AcDbEntity
  8
0
  6
CONTINUOUS
 62
     7
100
AcDbLine
 10
69867.575424
 20
9359.07683
 30
0.0
 11
70070.295424
 21
8799.07683
 31
0.0
  0
LINE
  5
32B2
100
AcDbEntity
  8
0
  6
CONTINUOUS
 62
     7
100
AcDbLine
 10
70099.735424
 20
9359.07683
 30
0.0
 11
70099.735424
 21
8799.07683
 31
0.0
  0
LINE
  5
32B3
100
AcDbEntity
  8
0
  6
CONTINUOUS
 62
     7
100
AcDbLine
 10
70283.815424
 20
9067.39683
 30
0.0
 11
70448.775424
 21
8799.07683
 31
0.0
  0
LINE
  5
32B4
100
AcDbEntity
  8
0
  6
CONTINUOUS
 62
     7
100
AcDbLine
 10
70260.295424
 20
9066.43683
 30
0.0
 11
70260.295424
 21
8799.07683
 31
0.0
  0
LINE
  5
32B5
100
AcDbEntity
  8
0
  6
CONTINUOUS
 62
     7
100
AcDbLine
 10
70099.735424
 20
8799.07683
 30
0.0
 11
70260.295424
 21
8799.07683
 31
0.0
  0
LINE
  5
32B6
100
AcDbEntity
  8
0
  6
CONTINUOUS
 62
     7
100
AcDbLine
 10
69887.335424
 20
8799.07683
 30
0.0
 11
70070.295424
 21
8799.07683
 31
0.0
  0
LINE
  5
32B7
100
AcDbEntity
  8
0
  6
CONTINUOUS
 62
     7
100
AcDbLine
 10
70448.775424
 20
8799.07683
 30
0.0
 11
70614.855424
 21
8799.07683
 31
0.0
  0
ARC
  5
32B8
100
AcDbEntity
  8
0
  6
CONTINUOUS
 62
     7
100
AcDbCircle
 10
70966.615424
 20
9124.03683
 30
0.0
 40
337.7128
100
AcDbArc
 50
252.699
 51
287.263
  0
ARC
  5
32B9
100
AcDbEntity
  8
0
  6
CONTINUOUS
 62
     7
100
AcDbCircle
 10
70939.895424
 20
9120.03683
 30
0.0
 40
247.6568
100
AcDbArc
 50
107.346
 51
153.043
  0
ARC
  5
32BA
100
AcDbEntity
  8
0
  6
CONTINUOUS
 62
     7
100
AcDbCircle
 10
71020.055424
 20
9079.07683
 30
0.0
 40
337.7128
100
AcDbArc
 50
152.861
 51
207.131
  0
LINE
  5
32BB
100
AcDbEntity
  8
0
  6
CONTINUOUS
 62
     7
100
AcDbLine
 10
70099.735424
 20
9359.07683
 30
0.0
 11
70265.895424
 21
9359.07683
 31
0.0
  0
ARC
  5
32BC
100
AcDbEntity
  8
0
  6
CONTINUOUS
 62
     7
100
AcDbCircle
 10
69479.255424
 20
9221.15683
 30
0.0
 40
293.7904
100
AcDbArc
 50
342.867
 51
351.73902
  0
ARC
  5
32BD
100
AcDbEntity
  8
0
  6
CONTINUOUS
 62
     7
100
AcDbCircle
 10
70064.615424
 20
9221.15683
 30
0.0
 40
293.7896
100
AcDbArc
 50
188.261
 51
197.133
  0
LINE
  5
32BE
100
AcDbEntity
  8
0
  6
CONTINUOUS
 62
     7
100
AcDbLine
 10
69770.055424
 20
9178.99683
 30
0.0
 11
69773.815424
 21
9178.99683
 31
0.0
  0
LINE
  5
32BF
100
AcDbEntity
  8
0
  6
CONTINUOUS
 62
     7
100
AcDbLine
 10
69783.895424
 20
9134.59683
 30
0.0
 11
69825.735424
 21
8998.83683
 31
0.0
  0
LINE
  5
32C0
100
AcDbEntity
  8
0
  6
CONTINUOUS
 62
     7
100
AcDbLine
 10
70265.895424
 20
9359.07683
 30
0.0
 11
70430.855424
 21
9090.67683
 31
0.0
  0
LINE
  5
32C1
100
AcDbEntity
  8
0
  6
CONTINUOUS
 62
     7
100
AcDbLine
 10
70454.375424
 20
9359.07683
 30
0.0
 11
70454.375424
 21
9091.71683
 31
0.0
  0
ARC
  5
32C2
100
AcDbEntity
  8
0
  6
CONTINUOUS
 62
     7
100
AcDbCircle
 10
69899.975424
 20
9066.43683
 30
0.0
 40
360.2264
100
AcDbArc
 50
0.0
 51
6.7299
  0
ARC
  5
32C3
100
AcDbEntity
  8
0
  6
CONTINUOUS
 62
     7
100
AcDbCircle
 10
70758.295424
 20
9359.07683
 30
0.0
 40
557.0016
100
AcDbArc
 50
206.723
 51
211.578
  0
LINE
  5
32C4
100
AcDbEntity
  8
0
  6
CONTINUOUS
 62
     7
100
AcDbLine
 10
70257.655424
 20
9108.59683
 30
0.0
 11
70260.855424
 21
9108.59683
 31
0.0
  0
ARC
  5
32C5
100
AcDbEntity
  8
0
  6
CONTINUOUS
 62
     7
100
AcDbCircle
 10
70814.695424
 20
9091.71683
 30
0.0
 40
360.2264
100
AcDbArc
 50
180.0
 51
186.73
  0
LINE
  5
32C6
100
AcDbEntity
  8
0
  6
CONTINUOUS
 62
     7
100
AcDbLine
 10
70453.815424
 20
9049.47683
 30
0.0
 11
70456.935424
 21
9049.47683
 31
0.0
  0
ARC
  5
32C7
100
AcDbEntity
  8
0
  6
CONTINUOUS
 62
     7
100
AcDbCircle
 10
69956.295424
 20
8799.07683
 30
0.0
 40
556.9992
100
AcDbArc
 50
26.7228
 51
31.5781
  0
LINE
  5
32C8
100
AcDbEntity
  8
0
  6
CONTINUOUS
 62
     7
100
AcDbLine
 10
70454.375424
 20
9359.07683
 30
0.0
 11
70614.855424
 21
9359.07683
 31
0.0
  0
ARC
  5
32C9
100
AcDbEntity
  8
0
  6
CONTINUOUS
 62
     7
100
AcDbCircle
 10
70993.335424
 20
9120.03683
 30
0.0
 40
247.6552
100
AcDbArc
 50
27.0618
 51
72.7366
  0
ARC
  5
32CA
100
AcDbEntity
  8
0
  6
CONTINUOUS
 62
     7
100
AcDbCircle
 10
70966.615424
 20
9125.87683
 30
0.0
 40
99.4976
100
AcDbArc
 50
14.6894
 51
164.799
  0
ARC
  5
32CB
100
AcDbEntity
  8
0
  6
CONTINUOUS
 62
     7
100
AcDbCircle
 10
70966.615424
 20
9034.03683
 30
0.0
 40
337.7128
100
AcDbArc
 50
72.7367
 51
107.323
  0
ARC
  5
32CC
100
AcDbEntity
  8
0
  6
CONTINUOUS
 62
     7
100
AcDbCircle
 10
70966.615424
 20
9032.27683
 30
0.0
 40
99.4984
100
AcDbArc
 50
195.203
 51
345.311
  0
ARC
  5
32CD
100
AcDbEntity
  8
0
  6
CONTINUOUS
 62
     7
100
AcDbCircle
 10
70787.895424
 20
9079.07683
 30
0.0
 40
284.24
100
AcDbArc
 50
345.311
 51
14.6886
  0
ARC
  5
32CE
100
AcDbEntity
  8
0
  6
CONTINUOUS
 62
     7
100
AcDbCircle
 10
71145.255424
 20
9079.07683
 30
0.0
 40
284.24
100
AcDbArc
 50
165.132
 51
194.869
  0
ARC
  5
32CF
100
AcDbEntity
  8
0
  6
CONTINUOUS
 62
     7
100
AcDbCircle
 10
70913.095424
 20
9079.07683
 30
0.0
 40
337.7128
100
AcDbArc
 50
332.938
 51
27.062
  0
ENDSEC
  0
SECTION
  2
OBJECTS
  0
DICTIONARY
  5
3349
100
AcDbDictionary
  3
ACAD_GROUP
350
334A
  3
ACAD_MLINESTYLE
350
3357
  3
ACDBVARIABLEDICTIONARY
350
336F
  0
DICTIONARY
  5
334A
102
{ACAD_REACTORS
330
3349
102
}
100
AcDbDictionary
  0
DICTIONARY
  5
3357
102
{ACAD_REACTORS
330
3349
102
}
100
AcDbDictionary
  3
STANDARD
350
3358
  0
DICTIONARY
  5
336F
102
{ACAD_REACTORS
330
3349
102
}
100
AcDbDictionary
  3
DIMADEC
350
3370
  0
MLINESTYLE
  5
3358
102
{ACAD_REACTORS
330
3357
102
}
100
AcDbMlineStyle
  2
STANDARD
 70
     0
  3

 62
   256
 51
90.0
 52
90.0
 71
     2
 49
0.5
 62
   256
  6
BYLAYER
 49
-0.5
 62
   256
  6
BYLAYER
  0
DICTIONARYVAR
  5
3370
102
{ACAD_REACTORS
330
336F
102
}
100
DictionaryVariables
280
     0
  1
1
  0
ENDSEC
  0
EOF
