  0
SECTION
  2
HEADER
  9
$ACADVER
  1
AC1012
  9
$DWGCODEPAGE
  3
dos932
  9
$INSBASE
 10
0.0
 20
0.0
 30
0.0
  9
$EXTMIN
 10
7048.912339
 20
284.902549
 30
0.0
  9
$EXTMAX
 10
61549.443246
 20
27223.865979
 30
0.0
  9
$LIMMIN
 10
0.0
 20
0.0
  9
$LIMMAX
 10
50000.0
 20
30000.0
  9
$ORTHOMODE
 70
     0
  9
$REGENMODE
 70
     1
  9
$FILLMODE
 70
     1
  9
$QTEXTMODE
 70
     0
  9
$MIRRTEXT
 70
     0
  9
$DRAGMODE
 70
     2
  9
$LTSCALE
 40
100.0
  9
$OSMODE
 70
     8
  9
$ATTMODE
 70
     1
  9
$TEXTSIZE
 40
700.0
  9
$TRACEWID
 40
0.05
  9
$TEXTSTYLE
  7
STANDARD
  9
$CLAYER
  8
0
  9
$CELTYPE
  6
BYLAYER
  9
$CECOLOR
 62
   256
  9
$CELTSCALE
 40
1.0
  9
$DELOBJ
 70
     1
  9
$DISPSILH
 70
     0
  9
$DIMSCALE
 40
1.0
  9
$DIMASZ
 40
100.0
  9
$DIMEXO
 40
100.0
  9
$DIMDLI
 40
100.0
  9
$DIMRND
 40
1.0
  9
$DIMDLE
 40
0.0
  9
$DIMEXE
 40
100.0
  9
$DIMTP
 40
0.0
  9
$DIMTM
 40
0.0
  9
$DIMTXT
 40
200.0
  9
$DIMCEN
 40
0.0
  9
$DIMTSZ
 40
0.0
  9
$DIMTOL
 70
     0
  9
$DIMLIM
 70
     0
  9
$DIMTIH
 70
     0
  9
$DIMTOH
 70
     0
  9
$DIMSE1
 70
     0
  9
$DIMSE2
 70
     0
  9
$DIMTAD
 70
     1
  9
$DIMZIN
 70
     8
  9
$DIMBLK
  1

  9
$DIMASO
 70
     1
  9
$DIMSHO
 70
     1
  9
$DIMPOST
  1

  9
$DIMAPOST
  1

  9
$DIMALT
 70
     0
  9
$DIMALTD
 70
     2
  9
$DIMALTF
 40
25.4
  9
$DIMLFAC
 40
1.0
  9
$DIMTOFL
 70
     0
  9
$DIMTVP
 40
0.0
  9
$DIMTIX
 70
     0
  9
$DIMSOXD
 70
     0
  9
$DIMSAH
 70
     0
  9
$DIMBLK1
  1

  9
$DIMBLK2
  1

  9
$DIMSTYLE
  2
CADLOG
  9
$DIMCLRD
 70
     0
  9
$DIMCLRE
 70
     0
  9
$DIMCLRT
 70
     0
  9
$DIMTFAC
 40
1.0
  9
$DIMGAP
 40
0.0
  9
$DIMJUST
 70
     0
  9
$DIMSD1
 70
     0
  9
$DIMSD2
 70
     0
  9
$DIMTOLJ
 70
     1
  9
$DIMTZIN
 70
     8
  9
$DIMALTZ
 70
     8
  9
$DIMALTTZ
 70
     8
  9
$DIMFIT
 70
     5
  9
$DIMUPT
 70
     0
  9
$DIMUNIT
 70
     2
  9
$DIMDEC
 70
     2
  9
$DIMTDEC
 70
     2
  9
$DIMALTU
 70
     2
  9
$DIMALTTD
 70
     2
  9
$DIMTXSTY
  7
EXTFONT
  9
$DIMAUNIT
 70
     0
  9
$LUNITS
 70
     2
  9
$LUPREC
 70
     2
  9
$SKETCHINC
 40
0.1
  9
$FILLETRAD
 40
0.0
  9
$AUNITS
 70
     0
  9
$AUPREC
 70
     1
  9
$MENU
  1
CADLOG
  9
$ELEVATION
 40
0.0
  9
$PELEVATION
 40
0.0
  9
$THICKNESS
 40
0.0
  9
$LIMCHECK
 70
     0
  9
$BLIPMODE
 70
     1
  9
$CHAMFERA
 40
0.0
  9
$CHAMFERB
 40
0.0
  9
$CHAMFERC
 40
0.0
  9
$CHAMFERD
 40
0.0
  9
$SKPOLY
 70
     0
  9
$TDCREATE
 40
2451816.663610532
  9
$TDUPDATE
 40
2451816.663610532
  9
$TDINDWG
 40
0.0000000000
  9
$TDUSRTIMER
 40
0.0000000000
  9
$USRTIMER
 70
     1
  9
$ANGBASE
 50
0.0
  9
$ANGDIR
 70
     0
  9
$PDMODE
 70
    35
  9
$PDSIZE
 40
-3.0
  9
$PLINEWID
 40
0.0
  9
$COORDS
 70
     1
  9
$SPLFRAME
 70
     0
  9
$SPLINETYPE
 70
     6
  9
$SPLINESEGS
 70
     8
  9
$ATTDIA
 70
     0
  9
$ATTREQ
 70
     1
  9
$HANDLING
 70
     1
  9
$HANDSEED
  5
2C38
  9
$SURFTAB1
 70
     6
  9
$SURFTAB2
 70
     6
  9
$SURFTYPE
 70
     6
  9
$SURFU
 70
     6
  9
$SURFV
 70
     6
  9
$UCSNAME
  2

  9
$UCSORG
 10
0.0
 20
0.0
 30
0.0
  9
$UCSXDIR
 10
1.0
 20
0.0
 30
0.0
  9
$UCSYDIR
 10
0.0
 20
1.0
 30
0.0
  9
$PUCSNAME
  2

  9
$PUCSORG
 10
0.0
 20
0.0
 30
0.0
  9
$PUCSXDIR
 10
1.0
 20
0.0
 30
0.0
  9
$PUCSYDIR
 10
0.0
 20
1.0
 30
0.0
  9
$USERI1
 70
     0
  9
$USERI2
 70
     0
  9
$USERI3
 70
     0
  9
$USERI4
 70
     0
  9
$USERI5
 70
     0
  9
$USERR1
 40
0.0
  9
$USERR2
 40
0.0
  9
$USERR3
 40
0.0
  9
$USERR4
 40
0.0
  9
$USERR5
 40
0.0
  9
$WORLDVIEW
 70
     1
  9
$SHADEDGE
 70
     3
  9
$SHADEDIF
 70
    70
  9
$TILEMODE
 70
     1
  9
$MAXACTVP
 70
    16
  9
$PINSBASE
 10
0.0
 20
0.0
 30
0.0
  9
$PLIMCHECK
 70
     0
  9
$PEXTMIN
 10
1.000000E+20
 20
1.000000E+20
 30
1.000000E+20
  9
$PEXTMAX
 10
-1.000000E+20
 20
-1.000000E+20
 30
-1.000000E+20
  9
$PLIMMIN
 10
0.0
 20
0.0
  9
$PLIMMAX
 10
12.0
 20
9.0
  9
$UNITMODE
 70
     0
  9
$VISRETAIN
 70
     0
  9
$PLINEGEN
 70
     0
  9
$PSLTSCALE
 70
     1
  9
$TREEDEPTH
 70
  3020
  9
$PICKSTYLE
 70
     1
  9
$CMLSTYLE
  2
STANDARD
  9
$CMLJUST
 70
     0
  9
$CMLSCALE
 40
1.0
  9
$SAVEIMAGES
 70
     1
  0
ENDSEC
  0
SECTION
  2
CLASSES
  0
CLASS
  1
DICTIONARYVAR
  2
AcDbDictionaryVar
  3
"AutoCAD"
 90
    32768
280
     0
281
     0
  0
ENDSEC
  0
SECTION
  2
TABLES
  0
TABLE
  2
VPORT
  5
2C08
100
AcDbSymbolTable
 70
     2
  0
VPORT
  5
2C37
100
AcDbSymbolTableRecord
100
AcDbViewportTableRecord
  2
*ACTIVE
 70
     0
 10
0.0
 20
0.0
 11
1.0
 21
1.0
 12
34299.477136
 22
13755.286384
 13
0.0
 23
0.0
 14
500.0
 24
500.0
 15
0.0
 25
0.0
 16
0.0
 26
0.0
 36
1.0
 17
0.0
 27
0.0
 37
0.0
 40
31078.383019
 41
1.765267
 42
50.0
 43
0.0
 44
0.0
 50
0.0
 51
0.0
 71
     0
 72
   100
 73
     1
 74
     1
 75
     0
 76
     0
 77
     0
 78
     0
  0
ENDTAB
  0
TABLE
  2
LTYPE
  5
2C05
100
AcDbSymbolTable
 70
     4
  0
LTYPE
  5
2C11
100
AcDbSymbolTableRecord
100
AcDbLinetypeTableRecord
  2
BYBLOCK
 70
     0
  3

 72
    65
 73
     0
 40
0.0
  0
LTYPE
  5
2C12
100
AcDbSymbolTableRecord
100
AcDbLinetypeTableRecord
  2
BYLAYER
 70
     0
  3

 72
    65
 73
     0
 40
0.0
  0
LTYPE
  5
2C13
100
AcDbSymbolTableRecord
100
AcDbLinetypeTableRecord
  2
CONTINUOUS
 70
     0
  3
Solid line
 72
    65
 73
     0
 40
0.0
  0
LTYPE
  5
2C1E
100
AcDbSymbolTableRecord
100
AcDbLinetypeTableRecord
  2
DASHED
 70
     0
  3
DASHED
 72
    65
 73
     2
 40
0.75
 49
0.5
 74
     0
 49
-0.25
 74
     0
  0
LTYPE
  5
2C1F
100
AcDbSymbolTableRecord
100
AcDbLinetypeTableRecord
  2
CENTER
 70
     0
  3
CENTER
 72
    65
 73
     4
 40
2.0
 49
1.25
 74
     0
 49
-0.25
 74
     0
 49
0.25
 74
     0
 49
-0.25
 74
     0
  0
LTYPE
  5
2C20
100
AcDbSymbolTableRecord
100
AcDbLinetypeTableRecord
  2
PHANTOM
 70
     0
  3
PHANTOM
 72
    65
 73
     6
 40
2.5
 49
1.25
 74
     0
 49
-0.25
 74
     0
 49
0.25
 74
     0
 49
-0.25
 74
     0
 49
0.25
 74
     0
 49
-0.25
 74
     0
  0
ENDTAB
  0
TABLE
  2
LAYER
  5
2C02
100
AcDbSymbolTable
 70
     7
  0
LAYER
  5
2C0E
100
AcDbSymbolTableRecord
100
AcDbLayerTableRecord
  2
0
 70
     0
 62
     7
  6
CONTINUOUS
  0
LAYER
  5
2C28
100
AcDbSymbolTableRecord
100
AcDbLayerTableRecord
  2
PV
 70
     0
 62
     7
  6
CONTINUOUS
  0
LAYER
  5
2C29
100
AcDbSymbolTableRecord
100
AcDbLayerTableRecord
  2
LJ
 70
     0
 62
     2
  6
CONTINUOUS
  0
LAYER
  5
2C2A
100
AcDbSymbolTableRecord
100
AcDbLayerTableRecord
  2
SUPORTL
 70
     0
 62
     2
  6
CONTINUOUS
  0
LAYER
  5
2C2B
100
AcDbSymbolTableRecord
100
AcDbLayerTableRecord
  2
SUPORT2
 70
     0
 62
     2
  6
CONTINUOUS
  0
LAYER
  5
2C2C
100
AcDbSymbolTableRecord
100
AcDbLayerTableRecord
  2
HOOK
 70
     0
 62
     6
  6
CONTINUOUS
  0
LAYER
  5
2C2D
100
AcDbSymbolTableRecord
100
AcDbLayerTableRecord
  2
点
 70
     0
 62
     1
  6
CONTINUOUS
  0
ENDTAB
  0
TABLE
  2
STYLE
  5
2C03
100
AcDbSymbolTable
 70
     2
  0
STYLE
  5
2C0F
100
AcDbSymbolTableRecord
100
AcDbTextStyleTableRecord
  2
STANDARD
 70
     0
 40
0.0
 41
1.0
 50
0.0
 71
     0
 42
1000.0
  3
txt
  4

  0
STYLE
  5
2C1D
100
AcDbSymbolTableRecord
100
AcDbTextStyleTableRecord
  2
EXTFONT
 70
     0
 40
0.0
 41
1.0
 50
0.0
 71
     0
 42
700.0
  3
txt.shx
  4
EXTFONT.SHX
  0
ENDTAB
  0
TABLE
  2
VIEW
  5
2C06
100
AcDbSymbolTable
 70
     0
  0
ENDTAB
  0
TABLE
  2
UCS
  5
2C07
100
AcDbSymbolTable
 70
     0
  0
ENDTAB
  0
TABLE
  2
APPID
  5
2C09
100
AcDbSymbolTable
 70
     5
  0
APPID
  5
2C10
100
AcDbSymbolTableRecord
100
AcDbRegAppTableRecord
  2
ACAD
 70
     0
  0
APPID
  5
2C22
100
AcDbSymbolTableRecord
100
AcDbRegAppTableRecord
  2
CONTENTTABDATA
 70
     0
  0
APPID
  5
2C23
100
AcDbSymbolTableRecord
100
AcDbRegAppTableRecord
  2
CONTENTCURRENTTAB
 70
     0
  0
APPID
  5
2C24
100
AcDbSymbolTableRecord
100
AcDbRegAppTableRecord
  2
CONTENTBLOCKDESCRIPTION
 70
     0
  0
APPID
  5
2C25
100
AcDbSymbolTableRecord
100
AcDbRegAppTableRecord
  2
CONTENTBLOCKICON
 70
     0
  0
ENDTAB
  0
TABLE
  2
DIMSTYLE
  5
2C0A
100
AcDbSymbolTable
 70
     2
  0
DIMSTYLE
105
2C26
100
AcDbSymbolTableRecord
100
AcDbDimStyleTableRecord
  2
CADLOG
 70
     0
  3

  4

  5

  6

  7

 40
1.0
 41
100.0
 42
100.0
 43
100.0
 44
100.0
 45
1.0
 46
0.0
 47
0.0
 48
0.0
140
200.0
141
0.0
142
0.0
143
25.4
144
1.0
145
0.0
146
1.0
147
0.0
 71
     0
 72
     0
 73
     0
 74
     0
 75
     0
 76
     0
 77
     1
 78
     8
170
     0
171
     2
172
     0
173
     0
174
     0
175
     0
176
     0
177
     0
178
     0
270
     2
271
     2
272
     2
273
     2
274
     2
340
2C1D
275
     0
280
     0
281
     0
282
     0
283
     1
284
     8
285
     8
286
     8
287
     5
288
     0
  0
DIMSTYLE
105
2C27
100
AcDbSymbolTableRecord
100
AcDbDimStyleTableRecord
  2
STANDARD
 70
     0
  3

  4

  5

  6

  7

 40
1.0
 41
0.18
 42
0.0625
 43
0.38
 44
0.18
 45
0.0
 46
0.0
 47
0.0
 48
0.0
140
0.18
141
0.09
142
0.0
143
25.4
144
1.0
145
0.0
146
1.0
147
0.09
 71
     0
 72
     0
 73
     1
 74
     1
 75
     0
 76
     0
 77
     0
 78
     0
170
     0
171
     2
172
     0
173
     0
174
     0
175
     0
176
     0
177
     0
178
     0
270
     2
271
     2
272
     2
273
     2
274
     2
340
2C1D
275
     0
280
     0
281
     0
282
     0
283
     1
284
     8
285
     8
286
     8
287
     5
288
     0
  0
ENDTAB
  0
TABLE
  2
BLOCK_RECORD
  5
2C01
100
AcDbSymbolTable
 70
     1
  0
BLOCK_RECORD
  5
2C17
100
AcDbSymbolTableRecord
100
AcDbBlockTableRecord
  2
*MODEL_SPACE
  0
BLOCK_RECORD
  5
2C14
100
AcDbSymbolTableRecord
100
AcDbBlockTableRecord
  2
*PAPER_SPACE
  0
BLOCK_RECORD
  5
2C1C
100
AcDbSymbolTableRecord
100
AcDbBlockTableRecord
  2
PP1
  0
ENDTAB
  0
ENDSEC
  0
SECTION
  2
BLOCKS
  0
BLOCK
  5
2C30
100
AcDbEntity
  8
0
100
AcDbBlockBegin
  2
*MODEL_SPACE
 70
     0
 10
0.0
 20
0.0
 30
0.0
  3
*MODEL_SPACE
  1

  0
ENDBLK
  5
2C31
100
AcDbEntity
  8
0
100
AcDbBlockEnd
  0
BLOCK
  5
2C2E
100
AcDbEntity
 67
     1
  8
0
100
AcDbBlockBegin
  2
*PAPER_SPACE
 70
     0
 10
0.0
 20
0.0
 30
0.0
  3
*PAPER_SPACE
  1

  0
ENDBLK
  5
2C2F
100
AcDbEntity
 67
     1
  8
0
100
AcDbBlockEnd
  0
BLOCK
  5
2A
100
AcDbEntity
  8
PV
100
AcDbBlockBegin
  2
PP1
 70
     2
 10
0.0
 20
0.0
 30
0.0
  3
PP1
  1

  0
ENDBLK
  5
2B
100
AcDbEntity
  8
PV
100
AcDbBlockEnd
  0
ENDSEC
  0
SECTION
  2
ENTITIES
  0
INSERT
  5
76
100
AcDbEntity
  8
PV
  6
BYBLOCK
 62
     0
100
AcDbBlockReference
  2
PP1
 10
0.0
 20
0.0
 30
0.0
  0
INSERT
  5
77
100
AcDbEntity
  8
0
  6
CONTINUOUS
100
AcDbBlockReference
 66
     1
  2
PP1
 10
0.0
 20
0.0
 30
0.0
  0
SEQEND
  5
78
100
AcDbEntity
  8
0
  6
CONTINUOUS
  0
INSERT
  5
252
100
AcDbEntity
  8
0
100
AcDbBlockReference
 66
     1
  2
PP1
 10
19406.981215
 20
11556.786332
 30
0.0
  0
SEQEND
  5
253
100
AcDbEntity
  8
0
  0
LINE
  5
1F80
100
AcDbEntity
  8
LJ
 62
     5
100
AcDbLine
 10
15176.294833
 20
22652.243717
 30
0.0
 11
7939.082821
 21
22980.407532
 31
0.0
  0
LINE
  5
1F81
100
AcDbEntity
  8
LJ
 62
     5
100
AcDbLine
 10
15423.678154
 20
22717.373447
 30
0.0
 11
7935.697021
 21
23056.895518
 31
0.0
  0
LINE
  5
1F82
100
AcDbEntity
  8
LJ
 62
     5
100
AcDbLine
 10
7072.450275
 20
23229.183283
 30
0.0
 11
15604.084381
 21
23229.156148
 31
0.0
  0
LINE
  5
1F83
100
AcDbEntity
  8
LJ
 62
     5
100
AcDbLine
 10
15423.702428
 20
23740.971057
 30
0.0
 11
7935.689696
 21
23401.507603
 31
0.0
  0
LINE
  5
1F84
100
AcDbEntity
  8
LJ
 62
     5
100
AcDbLine
 10
15423.744213
 20
23817.329917
 30
0.0
 11
8342.644331
 21
23496.324033
 31
0.0
  0
LINE
  5
1F85
100
AcDbEntity
  8
LJ
 62
     5
100
AcDbLine
 10
7939.082821
 20
22980.407532
 30
0.0
 11
7704.00776
 21
22864.349974
 31
0.0
  0
LINE
  5
1F86
100
AcDbEntity
  8
LJ
 62
     5
100
AcDbLine
 10
7098.460346
 20
23298.434337
 30
0.0
 11
7944.421238
 21
23445.981286
 31
0.0
  0
POINT
  5
1F87
100
AcDbEntity
  8
LJ
 62
     5
100
AcDbPoint
 10
7523.700178
 20
23189.206041
 30
0.0
  0
ARC
  5
1F88
100
AcDbEntity
  8
LJ
 62
     5
100
AcDbCircle
 10
7523.713889
 20
23229.207988
 30
0.0
 40
407.0
100
AcDbArc
 50
189.893
 51
296.268
  0
LINE
  5
1F89
100
AcDbEntity
  8
LJ
 62
     5
100
AcDbLine
 10
7426.813951
 20
23507.140447
 30
0.0
 11
7452.474119
 21
23360.18438
 31
0.0
  0
LINE
  5
1F8A
100
AcDbEntity
  8
LJ
 62
     5
100
AcDbLine
 10
7490.825655
 20
23518.342306
 30
0.0
 11
7516.524897
 21
23371.294188
 31
0.0
  0
CIRCLE
  5
1F8B
100
AcDbEntity
  8
LJ
 62
     5
100
AcDbCircle
 10
7523.640868
 20
23189.19893
 30
0.0
 40
287.5
  0
CIRCLE
  5
1F8C
100
AcDbEntity
  8
LJ
 62
     5
100
AcDbCircle
 10
7523.640868
 20
23189.19893
 30
0.0
 40
287.5
  0
LINE
  5
1F8D
100
AcDbEntity
  8
LJ
 62
     5
100
AcDbLine
 10
7098.460346
 20
23298.434337
 30
0.0
 11
7122.761282
 21
23159.284766
 31
0.0
  0
LINE
  5
1F8E
100
AcDbEntity
  8
LJ
 62
     5
100
AcDbLine
 10
7523.678991
 20
23321.42517
 30
0.0
 11
7523.715545
 21
23093.305008
 31
0.0
  0
LINE
  5
1F8F
100
AcDbEntity
  8
LJ
 62
     5
100
AcDbLine
 10
7392.399375
 20
23189.220509
 30
0.0
 11
7646.728235
 21
23189.192484
 31
0.0
  0
ARC
  5
1F90
100
AcDbEntity
  8
LJ
 62
     5
100
AcDbCircle
 10
7458.885365
 20
23512.714888
 30
0.0
 40
32.5
100
AcDbArc
 50
9.893
 51
189.893
  0
ARC
  5
1F91
100
AcDbEntity
  8
LJ
 62
     5
100
AcDbCircle
 10
8313.314169
 20
22872.361861
 30
0.0
 40
60.0
100
AcDbArc
 50
200.806
 51
334.002
  0
LINE
  5
1F92
100
AcDbEntity
  8
LJ
 62
     5
100
AcDbLine
 10
9816.179805
 20
22933.541751
 30
0.0
 11
9193.752815
 21
23496.709233
 31
0.0
  0
LINE
  5
1F93
100
AcDbEntity
  8
LJ
 62
     5
100
AcDbLine
 10
9816.141473
 20
23524.831434
 30
0.0
 11
9193.802381
 21
22961.697786
 31
0.0
  0
LINE
  5
1F94
100
AcDbEntity
  8
LJ
 62
     5
100
AcDbLine
 10
8217.043727
 20
22956.86347
 30
0.0
 11
8217.540934
 21
22967.720854
 31
0.0
  0
LINE
  5
1F95
100
AcDbEntity
  8
LJ
 62
     5
100
AcDbLine
 10
8217.043727
 20
22956.86347
 30
0.0
 11
8257.185196
 21
22851.035154
 31
0.0
  0
LINE
  5
1F96
100
AcDbEntity
  8
LJ
 62
     5
100
AcDbLine
 10
7935.697021
 20
23056.895518
 30
0.0
 11
7935.689696
 21
23401.507603
 31
0.0
  0
LINE
  5
1F97
100
AcDbEntity
  8
LJ
 62
     5
100
AcDbLine
 10
7923.723767
 20
23057.450405
 30
0.0
 11
7935.685757
 21
23057.422074
 31
0.0
  0
LINE
  5
1F98
100
AcDbEntity
  8
LJ
 62
     5
100
AcDbLine
 10
8416.769921
 20
22947.780673
 30
0.0
 11
8417.267129
 21
22958.638057
 31
0.0
  0
LINE
  5
1F99
100
AcDbEntity
  8
LJ
 62
     5
100
AcDbLine
 10
8416.769921
 20
22947.780673
 30
0.0
 11
8367.190129
 21
22846.018724
 31
0.0
  0
ARC
  5
1F9A
100
AcDbEntity
  8
LJ
 62
     5
100
AcDbCircle
 10
8243.725204
 20
23559.169131
 30
0.0
 40
85.0
100
AcDbArc
 50
10.374
 51
126.54
  0
LINE
  5
1F9B
100
AcDbEntity
  8
LJ
 62
     5
100
AcDbLine
 10
8327.302655
 20
23574.439351
 30
0.0
 11
8340.137666
 21
23504.276808
 31
0.0
  0
LINE
  5
1F9C
100
AcDbEntity
  8
LJ
 62
     5
100
AcDbLine
 10
7948.483386
 20
23446.230923
 30
0.0
 11
8193.093693
 21
23627.519333
 31
0.0
  0
LINE
  5
1F9D
100
AcDbEntity
  8
LJ
 62
     5
100
AcDbLine
 10
9167.867967
 20
23495.49901
 30
0.0
 11
9167.886379
 21
22962.864332
 31
0.0
  0
POINT
  5
1F9E
100
AcDbEntity
  8
LJ
 62
     5
100
AcDbPoint
 10
15523.757317
 20
23229.156403
 30
0.0
  0
LINE
  5
1F9F
100
AcDbEntity
  8
LJ
 62
     5
100
AcDbLine
 10
15523.748591
 20
23865.014073
 30
0.0
 11
15523.766353
 21
22570.731859
 31
0.0
  0
LINE
  5
1FA0
100
AcDbEntity
  8
LJ
 62
     5
100
AcDbLine
 10
15523.698959
 20
23862.059832
 30
0.0
 11
15523.72111
 21
22587.985784
 31
0.0
  0
LINE
  5
1FA1
100
AcDbEntity
  8
LJ
 62
     5
100
AcDbLine
 10
15393.700653
 20
23739.633118
 30
0.0
 11
15393.720381
 21
22718.680009
 31
0.0
  0
LINE
  5
1FA2
100
AcDbEntity
  8
LJ
 62
     5
100
AcDbLine
 10
15345.122276
 20
23737.37231
 30
0.0
 11
15345.157842
 21
22720.988638
 31
0.0
  0
LINE
  5
1FA3
100
AcDbEntity
  8
LJ
 62
     5
100
AcDbLine
 10
15322.050193
 20
22683.803742
 30
0.0
 11
14729.878687
 21
23747.69836
 31
0.0
  0
LINE
  5
1FA4
100
AcDbEntity
  8
LJ
 62
     5
100
AcDbLine
 10
15322.036235
 20
23774.612272
 30
0.0
 11
14729.790006
 21
22710.6211
 31
0.0
  0
ARC
  5
1FA5
100
AcDbEntity
  8
LJ
 62
     5
100
AcDbCircle
 10
15523.761719
 20
22679.257293
 30
0.0
 40
64.9999
100
AcDbArc
 50
72.9624
 51
287.038
  0
LINE
  5
1FA6
100
AcDbEntity
  8
LJ
 62
     5
100
AcDbLine
 10
15623.701136
 20
22634.227049
 30
0.0
 11
15598.739432
 21
22634.16913
 31
0.0
  0
LINE
  5
1FA7
100
AcDbEntity
  8
LJ
 62
     5
100
AcDbLine
 10
15623.701136
 20
22634.227049
 30
0.0
 11
15623.750369
 21
22724.198586
 31
0.0
  0
LINE
  5
1FA8
100
AcDbEntity
  8
LJ
 62
     5
100
AcDbLine
 10
15598.739432
 20
22634.16913
 30
0.0
 11
15542.78259
 21
22617.043658
 31
0.0
  0
LINE
  5
1FA9
100
AcDbEntity
  8
LJ
 62
     5
100
AcDbLine
 10
15623.750369
 20
22724.198586
 30
0.0
 11
15598.749593
 21
22724.232718
 31
0.0
  0
LINE
  5
1FAA
100
AcDbEntity
  8
LJ
 62
     5
100
AcDbLine
 10
15598.749593
 20
22724.232718
 30
0.0
 11
15542.819485
 21
22741.338946
 31
0.0
  0
ARC
  5
1FAB
100
AcDbEntity
  8
LJ
 62
     5
100
AcDbCircle
 10
15523.669668
 20
22679.21822
 30
0.0
 40
65.0
100
AcDbArc
 50
252.962
 51
107.0376
  0
LINE
  5
1FAC
100
AcDbEntity
  8
LJ
 62
     5
100
AcDbLine
 10
15423.677274
 20
22724.117341
 30
0.0
 11
15423.688998
 21
22634.267703
 31
0.0
  0
LINE
  5
1FAD
100
AcDbEntity
  8
LJ
 62
     5
100
AcDbLine
 10
15448.720868
 20
22634.150745
 30
0.0
 11
15504.650976
 21
22617.044517
 31
0.0
  0
LINE
  5
1FAE
100
AcDbEntity
  8
LJ
 62
     5
100
AcDbLine
 10
15448.731028
 20
22724.214333
 30
0.0
 11
15504.687871
 21
22741.339805
 31
0.0
  0
LINE
  5
1FAF
100
AcDbEntity
  8
LJ
 62
     5
100
AcDbLine
 10
15423.677274
 20
22724.117341
 30
0.0
 11
15448.731028
 21
22724.214333
 31
0.0
  0
LINE
  5
1FB0
100
AcDbEntity
  8
LJ
 62
     5
100
AcDbLine
 10
15423.651798
 20
22640.999958
 30
0.0
 11
15175.756435
 21
22652.232452
 31
0.0
  0
LINE
  5
1FB1
100
AcDbEntity
  8
LJ
 62
     5
100
AcDbLine
 10
15423.688998
 20
22634.267703
 30
0.0
 11
15448.669039
 21
22634.150987
 31
0.0
  0
LINE
  5
1FB2
100
AcDbEntity
  8
LJ
 62
     5
100
AcDbLine
 10
15423.698737
 20
23734.224331
 30
0.0
 11
15448.699513
 21
23734.190199
 31
0.0
  0
LINE
  5
1FB3
100
AcDbEntity
  8
LJ
 62
     5
100
AcDbLine
 10
15423.74797
 20
23824.195868
 30
0.0
 11
15423.698737
 21
23734.224331
 31
0.0
  0
LINE
  5
1FB4
100
AcDbEntity
  8
LJ
 62
     5
100
AcDbLine
 10
15345.891676
 20
23910.104294
 30
0.0
 11
15380.851155
 21
23911.690115
 31
0.0
  0
LINE
  5
1FB5
100
AcDbEntity
  8
LJ
 62
     5
100
AcDbLine
 10
15400.17706
 20
23816.254695
 30
0.0
 11
15396.492709
 21
23897.362806
 31
0.0
  0
LINE
  5
1FB6
100
AcDbEntity
  8
LJ
 62
     5
100
AcDbLine
 10
15345.891676
 20
23910.104294
 30
0.0
 11
15331.60344
 21
23894.37069
 31
0.0
  0
LINE
  5
1FB7
100
AcDbEntity
  8
LJ
 62
     5
100
AcDbLine
 10
15335.248718
 20
23813.35463
 30
0.0
 11
15331.564367
 21
23894.46274
 31
0.0
  0
ARC
  5
1FB8
100
AcDbEntity
  8
LJ
 62
     5
100
AcDbCircle
 10
15523.779437
 20
23779.204696
 30
0.0
 40
64.9999
100
AcDbArc
 50
72.9624
 51
287.038
  0
LINE
  5
1FB9
100
AcDbEntity
  8
LJ
 62
     5
100
AcDbLine
 10
15623.729015
 20
23824.23804
 30
0.0
 11
15623.718854
 21
23734.174452
 31
0.0
  0
LINE
  5
1FBA
100
AcDbEntity
  8
LJ
 62
     5
100
AcDbLine
 10
15598.767311
 20
23824.180121
 30
0.0
 11
15542.79813
 21
23841.378399
 31
0.0
  0
LINE
  5
1FBB
100
AcDbEntity
  8
LJ
 62
     5
100
AcDbLine
 10
15623.718854
 20
23734.174452
 30
0.0
 11
15598.718078
 21
23734.208583
 31
0.0
  0
LINE
  5
1FBC
100
AcDbEntity
  8
LJ
 62
     5
100
AcDbLine
 10
15598.718078
 20
23734.208583
 30
0.0
 11
15542.761235
 21
23717.083111
 31
0.0
  0
LINE
  5
1FBD
100
AcDbEntity
  8
LJ
 62
     5
100
AcDbLine
 10
15623.729015
 20
23824.23804
 30
0.0
 11
15598.767311
 21
23824.180121
 31
0.0
  0
ARC
  5
1FBE
100
AcDbEntity
  8
LJ
 62
     5
100
AcDbCircle
 10
15523.687387
 20
23779.165623
 30
0.0
 40
65.0
100
AcDbArc
 50
252.962
 51
107.0376
  0
LINE
  5
1FBF
100
AcDbEntity
  8
LJ
 62
     5
100
AcDbLine
 10
15423.74797
 20
23824.195868
 30
0.0
 11
15448.748747
 21
23824.161736
 31
0.0
  0
LINE
  5
1FC0
100
AcDbEntity
  8
LJ
 62
     5
100
AcDbLine
 10
15448.748747
 20
23824.161736
 30
0.0
 11
15504.666516
 21
23841.379259
 31
0.0
  0
LINE
  5
1FC1
100
AcDbEntity
  8
LJ
 62
     5
100
AcDbLine
 10
15448.699513
 20
23734.190199
 30
0.0
 11
15504.668694
 21
23716.99192
 31
0.0
  0
LINE
  5
1FC2
100
AcDbEntity
  8
LJ
 62
     5
100
AcDbLine
 10
15380.851155
 20
23911.690115
 30
0.0
 11
15396.492709
 21
23897.362806
 31
0.0
  0
LINE
  5
2057
100
AcDbEntity
  8
LJ
 62
     5
100
AcDbLine
 10
18439.532605
 20
22771.208307
 30
0.0
 11
26762.799309
 21
22771.234224
 31
0.0
  0
LINE
  5
2058
100
AcDbEntity
  8
LJ
 62
     5
100
AcDbLine
 10
18439.509531
 20
23794.984532
 30
0.0
 11
26762.850354
 21
23794.918355
 31
0.0
  0
LINE
  5
2059
100
AcDbEntity
  8
LJ
 62
     5
100
AcDbLine
 10
17962.823492
 20
23871.257886
 30
0.0
 11
26762.814001
 21
23871.273673
 31
0.0
  0
LINE
  5
205A
100
AcDbEntity
  8
LJ
 62
     5
100
AcDbLine
 10
17962.800126
 20
22694.955204
 30
0.0
 11
26762.868681
 21
22694.970991
 31
0.0
  0
LINE
  5
205B
100
AcDbEntity
  8
LJ
 62
     5
100
AcDbLine
 10
17777.391217
 20
23283.080402
 30
0.0
 11
26980.478148
 21
23283.115755
 31
0.0
  0
POINT
  5
205C
100
AcDbEntity
  8
LJ
 62
     5
100
AcDbPoint
 10
17862.852571
 20
23283.08073
 30
0.0
  0
LINE
  5
205D
100
AcDbEntity
  8
LJ
 62
     5
100
AcDbLine
 10
18439.483656
 20
23798.884446
 30
0.0
 11
18439.46643
 21
22767.269319
 31
0.0
  0
LINE
  5
205E
100
AcDbEntity
  8
LJ
 62
     5
100
AcDbLine
 10
18072.979356
 20
23833.099758
 30
0.0
 11
18665.498314
 21
22733.068189
 31
0.0
  0
LINE
  5
205F
100
AcDbEntity
  8
LJ
 62
     5
100
AcDbLine
 10
17862.794213
 20
23915.960942
 30
0.0
 11
17862.816364
 21
22641.886895
 31
0.0
  0
LINE
  5
2060
100
AcDbEntity
  8
LJ
 62
     5
100
AcDbLine
 10
18039.487251
 20
23788.899657
 30
0.0
 11
18039.46051
 21
22777.269523
 31
0.0
  0
LINE
  5
2061
100
AcDbEntity
  8
LJ
 62
     5
100
AcDbLine
 10
18073.00071
 20
22733.060305
 30
0.0
 11
18665.476959
 21
23833.107642
 31
0.0
  0
LINE
  5
2062
100
AcDbEntity
  8
LJ
 62
     5
100
AcDbLine
 10
17997.831138
 20
23794.900342
 30
0.0
 11
17997.815139
 21
22771.216168
 31
0.0
  0
LINE
  5
2063
100
AcDbEntity
  8
LJ
 62
     5
100
AcDbLine
 10
17862.843845
 20
23918.915183
 30
0.0
 11
17862.861607
 21
22624.632969
 31
0.0
  0
LINE
  5
2064
100
AcDbEntity
  8
LJ
 62
     5
100
AcDbLine
 10
17962.841857
 20
22771.216938
 30
0.0
 11
18045.492901
 21
22771.247874
 31
0.0
  0
LINE
  5
2065
100
AcDbEntity
  8
LJ
 62
     5
100
AcDbLine
 10
17762.784252
 20
22688.168813
 30
0.0
 11
17787.816122
 21
22688.051855
 31
0.0
  0
LINE
  5
2066
100
AcDbEntity
  8
LJ
 62
     5
100
AcDbLine
 10
17762.772528
 20
22778.018452
 30
0.0
 11
17787.826282
 21
22778.115444
 31
0.0
  0
LINE
  5
2067
100
AcDbEntity
  8
LJ
 62
     5
100
AcDbLine
 10
17787.826282
 20
22778.115444
 30
0.0
 11
17843.783125
 21
22795.240916
 31
0.0
  0
LINE
  5
2068
100
AcDbEntity
  8
LJ
 62
     5
100
AcDbLine
 10
17787.816122
 20
22688.051855
 30
0.0
 11
17843.74623
 21
22670.945628
 31
0.0
  0
LINE
  5
2069
100
AcDbEntity
  8
LJ
 62
     5
100
AcDbLine
 10
17762.772528
 20
22778.018452
 30
0.0
 11
17762.784252
 21
22688.168813
 31
0.0
  0
LINE
  5
206A
100
AcDbEntity
  8
LJ
 62
     5
100
AcDbLine
 10
17762.839962
 20
22733.071756
 30
0.0
 11
17952.421236
 21
22733.044928
 31
0.0
  0
ARC
  5
206B
100
AcDbEntity
  8
LJ
 62
     5
100
AcDbCircle
 10
17862.764922
 20
22733.11933
 30
0.0
 40
65.0
100
AcDbArc
 50
252.962
 51
107.0376
  0
LINE
  5
206C
100
AcDbEntity
  8
LJ
 62
     5
100
AcDbLine
 10
17937.844847
 20
22778.133828
 30
0.0
 11
17881.914739
 21
22795.240056
 31
0.0
  0
LINE
  5
206D
100
AcDbEntity
  8
LJ
 62
     5
100
AcDbLine
 10
17962.845623
 20
22778.099696
 30
0.0
 11
17937.844847
 21
22778.133828
 31
0.0
  0
LINE
  5
206E
100
AcDbEntity
  8
LJ
 62
     5
100
AcDbLine
 10
17937.834686
 20
22688.07024
 30
0.0
 11
17881.877844
 21
22670.944768
 31
0.0
  0
LINE
  5
206F
100
AcDbEntity
  8
LJ
 62
     5
100
AcDbLine
 10
17962.79639
 20
22688.128159
 30
0.0
 11
17962.845623
 21
22778.099696
 31
0.0
  0
LINE
  5
2070
100
AcDbEntity
  8
LJ
 62
     5
100
AcDbLine
 10
17962.79639
 20
22688.128159
 30
0.0
 11
17937.834686
 21
22688.07024
 31
0.0
  0
ARC
  5
2071
100
AcDbEntity
  8
LJ
 62
     5
100
AcDbCircle
 10
17862.856973
 20
22733.158403
 30
0.0
 40
64.9999
100
AcDbArc
 50
72.9624
 51
287.038
  0
LINE
  5
2072
100
AcDbEntity
  8
LJ
 62
     5
100
AcDbLine
 10
18049.457763
 20
22767.281784
 30
0.0
 11
18439.46643
 21
22767.269319
 31
0.0
  0
LINE
  5
2073
100
AcDbEntity
  8
LJ
 62
     5
100
AcDbLine
 10
18039.46051
 20
22777.269523
 30
0.0
 11
18049.457763
 21
22767.281784
 31
0.0
  0
LINE
  5
2074
100
AcDbEntity
  8
LJ
 62
     5
100
AcDbLine
 10
18205.594293
 20
22695.04686
 30
0.0
 11
18209.090277
 21
22692.185376
 31
0.0
  0
LINE
  5
2075
100
AcDbEntity
  8
LJ
 62
     5
100
AcDbLine
 10
17962.814889
 20
23794.99786
 30
0.0
 11
18045.5089
 21
23794.932049
 31
0.0
  0
ARC
  5
2076
100
AcDbEntity
  8
LJ
 62
     5
100
AcDbCircle
 10
18022.146832
 20
23930.58773
 30
0.0
 40
37.5
100
AcDbArc
 50
8.19
 51
180.0
  0
LINE
  5
2077
100
AcDbEntity
  8
LJ
 62
     5
100
AcDbLine
 10
17787.794767
 20
23788.091309
 30
0.0
 11
17843.763948
 21
23770.893031
 31
0.0
  0
LINE
  5
2078
100
AcDbEntity
  8
LJ
 62
     5
100
AcDbLine
 10
17787.844001
 20
23878.062847
 30
0.0
 11
17843.76177
 21
23895.280369
 31
0.0
  0
LINE
  5
2079
100
AcDbEntity
  8
LJ
 62
     5
100
AcDbLine
 10
17762.843224
 20
23878.096978
 30
0.0
 11
17787.844001
 21
23878.062847
 31
0.0
  0
ARC
  5
207A
100
AcDbEntity
  8
LJ
 62
     5
100
AcDbCircle
 10
17862.782641
 20
23833.066734
 30
0.0
 40
65.0
100
AcDbArc
 50
252.962
 51
107.0376
  0
LINE
  5
207B
100
AcDbEntity
  8
LJ
 62
     5
100
AcDbLine
 10
17962.824269
 20
23878.13915
 30
0.0
 11
17937.862565
 21
23878.081231
 31
0.0
  0
LINE
  5
207C
100
AcDbEntity
  8
LJ
 62
     5
100
AcDbLine
 10
17937.813332
 20
23788.109694
 30
0.0
 11
17881.856489
 21
23770.984221
 31
0.0
  0
LINE
  5
207D
100
AcDbEntity
  8
LJ
 62
     5
100
AcDbLine
 10
17962.814108
 20
23788.075562
 30
0.0
 11
17937.813332
 21
23788.109694
 31
0.0
  0
LINE
  5
207E
100
AcDbEntity
  8
LJ
 62
     5
100
AcDbLine
 10
17937.862565
 20
23878.081231
 30
0.0
 11
17881.893384
 21
23895.27951
 31
0.0
  0
LINE
  5
207F
100
AcDbEntity
  8
LJ
 62
     5
100
AcDbLine
 10
17962.824269
 20
23878.13915
 30
0.0
 11
17962.814108
 21
23788.075562
 31
0.0
  0
LINE
  5
2080
100
AcDbEntity
  8
LJ
 62
     5
100
AcDbLine
 10
17984.645667
 20
23930.638927
 30
0.0
 11
17984.662947
 21
23871.222349
 31
0.0
  0
ARC
  5
2081
100
AcDbEntity
  8
LJ
 62
     5
100
AcDbCircle
 10
17862.874691
 20
23833.105807
 30
0.0
 40
64.9999
100
AcDbArc
 50
72.9624
 51
287.038
  0
LINE
  5
2082
100
AcDbEntity
  8
LJ
 62
     5
100
AcDbLine
 10
17762.818607
 20
23833.111209
 30
0.0
 11
17946.845698
 21
23833.116764
 31
0.0
  0
LINE
  5
2083
100
AcDbEntity
  8
LJ
 62
     5
100
AcDbLine
 10
17762.843224
 20
23878.096978
 30
0.0
 11
17762.793991
 21
23788.125441
 31
0.0
  0
LINE
  5
2084
100
AcDbEntity
  8
LJ
 62
     5
100
AcDbLine
 10
17762.793991
 20
23788.125441
 30
0.0
 11
17787.794767
 21
23788.091309
 31
0.0
  0
LINE
  5
2085
100
AcDbEntity
  8
LJ
 62
     5
100
AcDbLine
 10
18049.56704
 20
23798.935984
 30
0.0
 11
18439.483656
 21
23798.884446
 31
0.0
  0
LINE
  5
2086
100
AcDbEntity
  8
LJ
 62
     5
100
AcDbLine
 10
18059.264373
 20
23935.929836
 30
0.0
 11
18059.626204
 21
23871.212005
 31
0.0
  0
LINE
  5
2087
100
AcDbEntity
  8
LJ
 62
     5
100
AcDbLine
 10
18039.487251
 20
23788.899657
 30
0.0
 11
18049.56704
 21
23798.935984
 31
0.0
  0
LINE
  5
2088
100
AcDbEntity
  8
LJ
 62
     5
100
AcDbLine
 10
26660.466704
 20
22733.049744
 30
0.0
 11
26068.039797
 21
23833.120387
 31
0.0
  0
LINE
  5
2089
100
AcDbEntity
  8
LJ
 62
     5
100
AcDbLine
 10
26660.44535
 20
23833.089198
 30
0.0
 11
26068.061152
 21
22733.080933
 31
0.0
  0
POINT
  5
208A
100
AcDbEntity
  8
LJ
 62
     5
100
AcDbPoint
 10
26862.851059
 20
23283.115303
 30
0.0
  0
LINE
  5
208B
100
AcDbEntity
  8
LJ
 62
     5
100
AcDbLine
 10
26862.81139
 20
23918.879849
 30
0.0
 11
26862.829152
 21
22624.597635
 31
0.0
  0
LINE
  5
208C
100
AcDbEntity
  8
LJ
 62
     5
100
AcDbLine
 10
26862.872808
 20
23932.811333
 30
0.0
 11
26862.82863
 21
22613.081994
 31
0.0
  0
LINE
  5
208D
100
AcDbEntity
  8
LJ
 62
     5
100
AcDbLine
 10
26684.237346
 20
23794.9539
 30
0.0
 11
26684.221347
 21
22771.269725
 31
0.0
  0
LINE
  5
208E
100
AcDbEntity
  8
LJ
 62
     5
100
AcDbLine
 10
26732.807804
 20
23794.929989
 30
0.0
 11
26732.791805
 21
22771.245814
 31
0.0
  0
LINE
  5
208F
100
AcDbEntity
  8
LJ
 62
     5
100
AcDbLine
 10
26962.813168
 20
22778.064363
 30
0.0
 11
26937.812391
 21
22778.098494
 31
0.0
  0
LINE
  5
2090
100
AcDbEntity
  8
LJ
 62
     5
100
AcDbLine
 10
26962.763935
 20
22688.092825
 30
0.0
 11
26937.802231
 21
22688.034906
 31
0.0
  0
LINE
  5
2091
100
AcDbEntity
  8
LJ
 62
     5
100
AcDbLine
 10
26787.885878
 20
22778.119183
 30
0.0
 11
26843.84272
 21
22795.244655
 31
0.0
  0
LINE
  5
2092
100
AcDbEntity
  8
LJ
 62
     5
100
AcDbLine
 10
26762.79305
 20
22778.114241
 30
0.0
 11
26787.885878
 21
22778.119183
 31
0.0
  0
LINE
  5
2093
100
AcDbEntity
  8
LJ
 62
     5
100
AcDbLine
 10
26937.812391
 20
22778.098494
 30
0.0
 11
26881.882284
 21
22795.204722
 31
0.0
  0
LINE
  5
2094
100
AcDbEntity
  8
LJ
 62
     5
100
AcDbLine
 10
26937.802231
 20
22688.034906
 30
0.0
 11
26881.845389
 21
22670.909434
 31
0.0
  0
LINE
  5
2095
100
AcDbEntity
  8
LJ
 62
     5
100
AcDbLine
 10
26787.836644
 20
22688.147645
 30
0.0
 11
26843.805825
 21
22670.949367
 31
0.0
  0
LINE
  5
2096
100
AcDbEntity
  8
LJ
 62
     5
100
AcDbLine
 10
26762.874941
 20
22688.089726
 30
0.0
 11
26787.836644
 21
22688.147645
 31
0.0
  0
ARC
  5
2097
100
AcDbEntity
  8
LJ
 62
     5
100
AcDbCircle
 10
26862.824518
 20
22733.12307
 30
0.0
 40
64.9999
100
AcDbArc
 50
72.9624
 51
287.038
  0
LINE
  5
2098
100
AcDbEntity
  8
LJ
 62
     5
100
AcDbLine
 10
26762.874941
 20
22688.089726
 30
0.0
 11
26762.79305
 21
22778.114241
 31
0.0
  0
ARC
  5
2099
100
AcDbEntity
  8
LJ
 62
     5
100
AcDbCircle
 10
26862.824518
 20
22733.12307
 30
0.0
 40
64.9999
100
AcDbArc
 50
252.962
 51
107.0375
  0
LINE
  5
209A
100
AcDbEntity
  8
LJ
 62
     5
100
AcDbLine
 10
26962.763935
 20
22688.092825
 30
0.0
 11
26962.813168
 21
22778.064363
 31
0.0
  0
LINE
  5
209B
100
AcDbEntity
  8
LJ
 62
     5
100
AcDbLine
 10
26962.791813
 20
23878.103816
 30
0.0
 11
26937.83011
 21
23878.045897
 31
0.0
  0
LINE
  5
209C
100
AcDbEntity
  8
LJ
 62
     5
100
AcDbLine
 10
26962.781653
 20
23788.040228
 30
0.0
 11
26937.780877
 21
23788.07436
 31
0.0
  0
LINE
  5
209D
100
AcDbEntity
  8
LJ
 62
     5
100
AcDbLine
 10
26937.780877
 20
23788.07436
 30
0.0
 11
26881.824034
 21
23770.948888
 31
0.0
  0
LINE
  5
209E
100
AcDbEntity
  8
LJ
 62
     5
100
AcDbLine
 10
26937.83011
 20
23878.045897
 30
0.0
 11
26881.860929
 21
23895.244176
 31
0.0
  0
ARC
  5
209F
100
AcDbEntity
  8
LJ
 62
     5
100
AcDbCircle
 10
26862.842236
 20
23833.070473
 30
0.0
 40
64.9999
100
AcDbArc
 50
72.9624
 51
287.038
  0
LINE
  5
20A0
100
AcDbEntity
  8
LJ
 62
     5
100
AcDbLine
 10
26787.864523
 20
23878.158637
 30
0.0
 11
26843.821365
 21
23895.284109
 31
0.0
  0
LINE
  5
20A1
100
AcDbEntity
  8
LJ
 62
     5
100
AcDbLine
 10
26762.810769
 20
23878.061645
 30
0.0
 11
26762.853586
 21
23788.12918
 31
0.0
  0
LINE
  5
20A2
100
AcDbEntity
  8
LJ
 62
     5
100
AcDbLine
 10
26787.854363
 20
23788.095049
 30
0.0
 11
26843.78447
 21
23770.988821
 31
0.0
  0
LINE
  5
20A3
100
AcDbEntity
  8
LJ
 62
     5
100
AcDbLine
 10
26762.853586
 20
23788.12918
 30
0.0
 11
26787.854363
 21
23788.095049
 31
0.0
  0
LINE
  5
20A4
100
AcDbEntity
  8
LJ
 62
     5
100
AcDbLine
 10
26762.810769
 20
23878.061645
 30
0.0
 11
26787.864523
 21
23878.158637
 31
0.0
  0
ARC
  5
20A5
100
AcDbEntity
  8
LJ
 62
     5
100
AcDbCircle
 10
26862.842236
 20
23833.070473
 30
0.0
 40
64.9999
100
AcDbArc
 50
252.962
 51
107.0375
  0
LINE
  5
20A6
100
AcDbEntity
  8
LJ
 62
     5
100
AcDbLine
 10
26962.791813
 20
23878.103816
 30
0.0
 11
26962.781653
 21
23788.040228
 31
0.0
  0
LINE
  5
20A7
100
AcDbEntity
  8
LJ
 62
     5
100
AcDbLine
 10
9074.096577
 20
14549.379119
 30
0.0
 11
13758.887086
 21
14001.434762
 31
0.0
  0
LINE
  5
20A8
100
AcDbEntity
  8
LJ
 62
     5
100
AcDbLine
 10
9074.145282
 20
14447.080921
 30
0.0
 11
13899.754481
 21
13882.643364
 31
0.0
  0
LINE
  5
20A9
100
AcDbEntity
  8
LJ
 62
     5
100
AcDbLine
 10
8771.966217
 20
13798.226703
 30
0.0
 11
14291.425978
 21
13798.25358
 31
0.0
  0
LINE
  5
20AA
100
AcDbEntity
  8
LJ
 62
     5
100
AcDbLine
 10
13899.744283
 20
13713.798932
 30
0.0
 11
9074.105833
 21
13149.346662
 31
0.0
  0
LINE
  5
20AB
100
AcDbEntity
  8
LJ
 62
     5
100
AcDbLine
 10
13758.90106
 20
13595.023732
 30
0.0
 11
9074.082067
 21
13047.101309
 31
0.0
  0
POINT
  5
20AC
100
AcDbEntity
  8
LJ
 62
     5
100
AcDbPoint
 10
8947.108088
 20
13798.227556
 30
0.0
  0
LINE
  5
20AD
100
AcDbEntity
  8
LJ
 62
     5
100
AcDbLine
 10
9717.626607
 20
14422.991417
 30
0.0
 11
10208.746261
 21
13230.923543
 31
0.0
  0
LINE
  5
20AE
100
AcDbEntity
  8
LJ
 62
     5
100
AcDbLine
 10
9717.616008
 20
13173.563848
 30
0.0
 11
10208.726472
 21
14365.509921
 31
0.0
  0
LINE
  5
20AF
100
AcDbEntity
  8
LJ
 62
     5
100
AcDbLine
 10
9552.456484
 20
14442.288318
 30
0.0
 11
9552.45629
 21
13154.190736
 31
0.0
  0
LINE
  5
20B0
100
AcDbEntity
  8
LJ
 62
     5
100
AcDbLine
 10
8947.093729
 20
14594.667664
 30
0.0
 11
8947.086658
 21
13001.517169
 31
0.0
  0
LINE
  5
20B1
100
AcDbEntity
  8
LJ
 62
     5
100
AcDbLine
 10
9103.876238
 20
14443.619907
 30
0.0
 11
9103.932367
 21
13152.830332
 31
0.0
  0
LINE
  5
20B2
100
AcDbEntity
  8
LJ
 62
     5
100
AcDbLine
 10
9160.906194
 20
14436.975053
 30
0.0
 11
9160.942956
 21
13159.539489
 31
0.0
  0
LINE
  5
20B3
100
AcDbEntity
  8
LJ
 62
     5
100
AcDbLine
 10
8947.087376
 20
14626.92987
 30
0.0
 11
8947.128739
 21
12971.986029
 31
0.0
  0
LINE
  5
20B4
100
AcDbEntity
  8
LJ
 62
     5
100
AcDbLine
 10
9074.109054
 20
13163.201927
 30
0.0
 11
9074.07885
 21
13033.260405
 31
0.0
  0
LINE
  5
20B5
100
AcDbEntity
  8
LJ
 62
     5
100
AcDbLine
 10
8843.781122
 20
13098.241603
 30
0.0
 11
9074.093952
 21
13098.231166
 31
0.0
  0
LINE
  5
20B6
100
AcDbEntity
  8
LJ
 62
     5
100
AcDbLine
 10
9042.162072
 20
13163.220742
 30
0.0
 11
8955.335383
 21
13172.752587
 31
0.0
  0
LINE
  5
20B7
100
AcDbEntity
  8
LJ
 62
     5
100
AcDbLine
 10
9042.131868
 20
13033.27922
 30
0.0
 11
8955.278261
 21
13023.679697
 31
0.0
  0
LINE
  5
20B8
100
AcDbEntity
  8
LJ
 62
     5
100
AcDbLine
 10
9042.131868
 20
13033.27922
 30
0.0
 11
9074.07885
 21
13033.260405
 31
0.0
  0
LINE
  5
20B9
100
AcDbEntity
  8
LJ
 62
     5
100
AcDbLine
 10
9042.162072
 20
13163.220742
 30
0.0
 11
9074.109054
 21
13163.201927
 31
0.0
  0
LINE
  5
20BA
100
AcDbEntity
  8
LJ
 62
     5
100
AcDbLine
 10
9066.594246
 20
13033.233824
 30
0.0
 11
9074.07885
 21
13033.260405
 31
0.0
  0
ARC
  5
20BB
100
AcDbEntity
  8
LJ
 62
     5
100
AcDbCircle
 10
8947.106671
 20
13098.211738
 30
0.0
 40
74.9999
100
AcDbArc
 50
83.7211
 51
276.279
  0
LINE
  5
20BC
100
AcDbEntity
  8
LJ
 62
     5
100
AcDbLine
 10
8852.094916
 20
13038.218518
 30
0.0
 11
8934.612482
 21
13024.250293
 31
0.0
  0
LINE
  5
20BD
100
AcDbEntity
  8
LJ
 62
     5
100
AcDbLine
 10
8852.13445
 20
13163.275378
 30
0.0
 11
8820.095418
 21
13163.255121
 31
0.0
  0
LINE
  5
20BE
100
AcDbEntity
  8
LJ
 62
     5
100
AcDbLine
 10
8820.095418
 20
13163.255121
 30
0.0
 11
8820.104288
 21
13033.221549
 31
0.0
  0
LINE
  5
20BF
100
AcDbEntity
  8
LJ
 62
     5
100
AcDbLine
 10
8852.13445
 20
13163.275378
 30
0.0
 11
8852.14332
 21
13033.241806
 31
0.0
  0
LINE
  5
20C0
100
AcDbEntity
  8
LJ
 62
     5
100
AcDbLine
 10
8852.14332
 20
13033.241806
 30
0.0
 11
8820.104288
 21
13033.221549
 31
0.0
  0
LINE
  5
20C1
100
AcDbEntity
  8
LJ
 62
     5
100
AcDbLine
 10
8852.090804
 20
13158.259594
 30
0.0
 11
8934.600083
 21
13172.207314
 31
0.0
  0
ARC
  5
20C2
100
AcDbEntity
  8
LJ
 62
     5
100
AcDbCircle
 10
8947.106671
 20
13098.211738
 30
0.0
 40
75.0
100
AcDbArc
 50
260.402
 51
99.598
  0
LINE
  5
20C3
100
AcDbEntity
  8
LJ
 62
     5
100
AcDbLine
 10
10150.349606
 20
13278.921779
 30
0.0
 11
10070.955433
 21
13269.66406
 31
0.0
  0
LINE
  5
20C4
100
AcDbEntity
  8
LJ
 62
     5
100
AcDbLine
 10
10071.310437
 20
13266.012489
 30
0.0
 11
10070.955433
 21
13269.66406
 31
0.0
  0
LINE
  5
20C5
100
AcDbEntity
  8
LJ
 62
     5
100
AcDbLine
 10
10150.79666
 20
13275.309281
 30
0.0
 11
10150.349606
 21
13278.921779
 31
0.0
  0
LINE
  5
20C6
100
AcDbEntity
  8
LJ
 62
     5
100
AcDbLine
 10
9302.77622
 20
14521.964322
 30
0.0
 11
9086.627009
 21
14547.215439
 31
0.0
  0
ARC
  5
20C7
100
AcDbEntity
  8
LJ
 62
     5
100
AcDbCircle
 10
9192.14713
 20
14608.301478
 30
0.0
 40
60.0
100
AcDbArc
 50
351.969
 51
128.919
  0
LINE
  5
20C8
100
AcDbEntity
  8
LJ
 62
     5
100
AcDbLine
 10
9042.112818
 20
14433.263752
 30
0.0
 11
8955.351261
 21
14423.703302
 31
0.0
  0
LINE
  5
20C9
100
AcDbEntity
  8
LJ
 62
     5
100
AcDbLine
 10
9042.112818
 20
14433.263752
 30
0.0
 11
9074.15185
 21
14433.28401
 31
0.0
  0
LINE
  5
20CA
100
AcDbEntity
  8
LJ
 62
     5
100
AcDbLine
 10
9042.143022
 20
14563.205274
 30
0.0
 11
8955.316333
 21
14572.737119
 31
0.0
  0
LINE
  5
20CB
100
AcDbEntity
  8
LJ
 62
     5
100
AcDbLine
 10
9074.090003
 20
14563.186459
 30
0.0
 11
9074.15185
 21
14433.28401
 31
0.0
  0
LINE
  5
20CC
100
AcDbEntity
  8
LJ
 62
     5
100
AcDbLine
 10
9042.143022
 20
14563.205274
 30
0.0
 11
9074.090003
 21
14563.186459
 31
0.0
  0
LINE
  5
20CD
100
AcDbEntity
  8
LJ
 62
     5
100
AcDbLine
 10
9055.109464
 20
14576.422361
 30
0.0
 11
9053.998351
 21
14566.499386
 31
0.0
  0
LINE
  5
20CE
100
AcDbEntity
  8
LJ
 62
     5
100
AcDbLine
 10
9073.213851
 20
14564.226823
 30
0.0
 11
9086.627009
 21
14547.215439
 31
0.0
  0
LINE
  5
20CF
100
AcDbEntity
  8
LJ
 62
     5
100
AcDbLine
 10
9053.998351
 20
14566.499386
 30
0.0
 11
9073.213851
 21
14564.226823
 31
0.0
  0
LINE
  5
20D0
100
AcDbEntity
  8
LJ
 62
     5
100
AcDbLine
 10
9055.109464
 20
14576.422361
 30
0.0
 11
9154.926843
 21
14655.294033
 31
0.0
  0
ARC
  5
20D1
100
AcDbEntity
  8
LJ
 62
     5
100
AcDbCircle
 10
8947.08762
 20
14498.19627
 30
0.0
 40
74.9999
100
AcDbArc
 50
83.7211
 51
276.279
  0
LINE
  5
20D2
100
AcDbEntity
  8
LJ
 62
     5
100
AcDbLine
 10
8852.1154
 20
14563.25991
 30
0.0
 11
8852.124269
 21
14433.226338
 31
0.0
  0
LINE
  5
20D3
100
AcDbEntity
  8
LJ
 62
     5
100
AcDbLine
 10
8820.076368
 20
14563.239653
 30
0.0
 11
8820.085237
 21
14433.206081
 31
0.0
  0
LINE
  5
20D4
100
AcDbEntity
  8
LJ
 62
     5
100
AcDbLine
 10
8852.1154
 20
14563.25991
 30
0.0
 11
8820.076368
 21
14563.239653
 31
0.0
  0
LINE
  5
20D5
100
AcDbEntity
  8
LJ
 62
     5
100
AcDbLine
 10
8852.124269
 20
14433.226338
 30
0.0
 11
8820.085237
 21
14433.206081
 31
0.0
  0
LINE
  5
20D6
100
AcDbEntity
  8
LJ
 62
     5
100
AcDbLine
 10
8852.071753
 20
14558.244126
 30
0.0
 11
8934.581032
 21
14572.191846
 31
0.0
  0
LINE
  5
20D7
100
AcDbEntity
  8
LJ
 62
     5
100
AcDbLine
 10
8852.167916
 20
14438.242123
 30
0.0
 11
8934.593431
 21
14424.234825
 31
0.0
  0
ARC
  5
20D8
100
AcDbEntity
  8
LJ
 62
     5
100
AcDbCircle
 10
8947.08762
 20
14498.19627
 30
0.0
 40
75.0
100
AcDbArc
 50
260.402
 51
99.598
  0
LINE
  5
20D9
100
AcDbEntity
  8
LJ
 62
     5
100
AcDbLine
 10
9303.979383
 20
14531.92637
 30
0.0
 11
9302.77622
 21
14521.964322
 31
0.0
  0
ARC
  5
20DA
100
AcDbEntity
  8
LJ
 62
     5
100
AcDbCircle
 10
9310.961285
 20
14591.489387
 30
0.0
 40
60.0
100
AcDbArc
 50
171.969
 51
263.328
  0
ARC
  5
20DB
100
AcDbEntity
  8
LJ
 62
     5
100
AcDbCircle
 10
9517.121713
 20
14533.209735
 30
0.0
 40
39.9999
100
AcDbArc
 50
235.673
 51
290.983
  0
LINE
  5
20DC
100
AcDbEntity
  8
LJ
 62
     5
100
AcDbLine
 10
9552.449823
 20
14391.117917
 30
0.0
 11
9552.430362
 21
14249.122355
 31
0.0
  0
LINE
  5
20DD
100
AcDbEntity
  8
LJ
 62
     5
100
AcDbLine
 10
9041.57951
 20
13798.277008
 30
0.0
 11
8743.111551
 21
13798.274548
 31
0.0
  0
POINT
  5
20DE
100
AcDbEntity
  8
LJ
 62
     5
100
AcDbPoint
 10
14147.145698
 20
13798.28096
 30
0.0
  0
LINE
  5
20DF
100
AcDbEntity
  8
LJ
 62
     5
100
AcDbLine
 10
11809.531392
 20
13418.18663
 30
0.0
 11
12326.339346
 21
14117.838514
 31
0.0
  0
LINE
  5
20E0
100
AcDbEntity
  8
LJ
 62
     5
100
AcDbLine
 10
11809.526763
 20
14178.311022
 30
0.0
 11
12326.39548
 21
13478.647896
 31
0.0
  0
LINE
  5
20E1
100
AcDbEntity
  8
LJ
 62
     5
100
AcDbLine
 10
13947.167936
 20
13583.249463
 30
0.0
 11
14191.750311
 21
13665.558587
 31
0.0
  0
CIRCLE
  5
20E2
100
AcDbEntity
  8
LJ
 62
     5
100
AcDbCircle
 10
14147.145698
 20
13798.28096
 30
0.0
 40
72.5
  0
ARC
  5
20E3
100
AcDbEntity
  8
LJ
 62
     5
100
AcDbCircle
 10
14077.137669
 20
14148.247267
 30
0.0
 40
79.9999
100
AcDbArc
 50
20.987
 51
158.943
  0
LINE
  5
20E4
100
AcDbEntity
  8
LJ
 62
     5
100
AcDbLine
 10
12347.110588
 20
14049.197889
 30
0.0
 11
12479.804753
 21
13854.573973
 31
0.0
  0
LINE
  5
20E5
100
AcDbEntity
  8
LJ
 62
     5
100
AcDbLine
 10
12347.156441
 20
13547.210222
 30
0.0
 11
12479.729307
 21
13741.886377
 31
0.0
  0
LINE
  5
20E6
100
AcDbEntity
  8
LJ
 62
     5
100
AcDbLine
 10
12347.110588
 20
14049.197889
 30
0.0
 11
12347.110404
 21
14064.29822
 31
0.0
  0
LINE
  5
20E7
100
AcDbEntity
  8
LJ
 62
     5
100
AcDbLine
 10
12347.156441
 20
13547.210222
 30
0.0
 11
12347.117552
 21
13532.201941
 31
0.0
  0
ARC
  5
20E8
100
AcDbEntity
  8
LJ
 62
     5
100
AcDbCircle
 10
12397.122484
 20
13798.293404
 30
0.0
 40
99.9999
100
AcDbArc
 50
325.735
 51
34.265
  0
ARC
  5
20E9
100
AcDbEntity
  8
LJ
 62
     5
100
AcDbCircle
 10
13843.414919
 20
14153.219806
 30
0.0
 40
140.0
100
AcDbArc
 50
270.0
 51
339.013
  0
LINE
  5
20EA
100
AcDbEntity
  8
LJ
 62
     5
100
AcDbLine
 10
13760.317729
 20
13583.240564
 30
0.0
 11
13947.167936
 21
13583.249463
 31
0.0
  0
LINE
  5
20EB
100
AcDbEntity
  8
LJ
 62
     5
100
AcDbLine
 10
13760.311163
 20
14013.219214
 30
0.0
 11
13843.389473
 21
14013.285788
 31
0.0
  0
LINE
  5
20EC
100
AcDbEntity
  8
LJ
 62
     5
100
AcDbLine
 10
13760.317729
 20
13583.240564
 30
0.0
 11
13758.58249
 21
13597.82168
 31
0.0
  0
LINE
  5
20ED
100
AcDbEntity
  8
LJ
 62
     5
100
AcDbLine
 10
13760.311163
 20
14013.219214
 30
0.0
 11
13758.887086
 21
14001.434762
 31
0.0
  0
LINE
  5
20EE
100
AcDbEntity
  8
LJ
 62
     5
100
AcDbLine
 10
13896.966998
 20
13859.168629
 30
0.0
 11
13953.397843
 21
13834.996337
 31
0.0
  0
LINE
  5
20EF
100
AcDbEntity
  8
LJ
 62
     5
100
AcDbLine
 10
13896.991
 20
13737.289183
 30
0.0
 11
13953.300728
 21
13761.517152
 31
0.0
  0
LINE
  5
20F0
100
AcDbEntity
  8
LJ
 62
     5
100
AcDbLine
 10
13896.991
 20
13737.289183
 30
0.0
 11
13899.744283
 21
13713.798932
 31
0.0
  0
ARC
  5
20F1
100
AcDbEntity
  8
LJ
 62
     5
100
AcDbCircle
 10
13937.579432
 20
13798.298273
 30
0.0
 40
40.0
100
AcDbArc
 50
293.233
 51
66.7674
  0
LINE
  5
20F2
100
AcDbEntity
  8
LJ
 62
     5
100
AcDbLine
 10
14002.391939
 20
14176.921224
 30
0.0
 11
13974.088824
 21
14103.093359
 31
0.0
  0
CIRCLE
  5
20F3
100
AcDbEntity
  8
LJ
 62
     5
100
AcDbCircle
 10
14077.137669
 20
14148.247267
 30
0.0
 40
40.5
  0
CIRCLE
  5
20F4
100
AcDbEntity
  8
LJ
 62
     5
100
AcDbCircle
 10
14077.137669
 20
14148.247267
 30
0.0
 40
40.0
  0
LINE
  5
20F5
100
AcDbEntity
  8
LJ
 62
     5
100
AcDbLine
 10
13896.966998
 20
13859.168629
 30
0.0
 11
13899.754481
 21
13882.643364
 31
0.0
  0
LINE
  5
20F6
100
AcDbEntity
  8
LJ
 62
     5
100
AcDbLine
 10
14151.780054
 20
14176.889271
 30
0.0
 11
14277.838909
 21
13848.433771
 31
0.0
  0
LINE
  5
20F7
100
AcDbEntity
  8
LJ
 62
     5
100
AcDbLine
 10
14147.094041
 20
13961.430362
 30
0.0
 11
14147.12062
 21
13628.14628
 31
0.0
  0
ARC
  5
20F8
100
AcDbEntity
  8
LJ
 62
     5
100
AcDbCircle
 10
14147.145698
 20
13798.28096
 30
0.0
 40
140.0
100
AcDbArc
 50
288.595
 51
20.987
  0
POINT
  5
20F9
100
AcDbEntity
  8
0
  6
CONTINUOUS
 62
     5
100
AcDbPoint
 10
23365.288312
 20
13418.412829
 30
0.0
  0
LINE
  5
20FA
100
AcDbEntity
  8
SUPORTL
 62
     5
100
AcDbLine
 10
23215.264805
 20
13242.079472
 30
0.0
 11
23445.313734
 21
13321.132812
 31
0.0
  0
LINE
  5
20FB
100
AcDbEntity
  8
SUPORTL
 62
     5
100
AcDbLine
 10
23199.195673
 20
14518.451692
 30
0.0
 11
23510.809045
 21
14518.375003
 31
0.0
  0
LINE
  5
20FC
100
AcDbEntity
  8
SUPORTL
 62
     5
100
AcDbLine
 10
23049.424837
 20
14102.806005
 30
0.0
 11
23453.60814
 21
14397.14239
 31
0.0
  0
LINE
  5
20FD
100
AcDbEntity
  8
SUPORTL
 62
     5
100
AcDbLine
 10
23260.897007
 20
13418.432817
 30
0.0
 11
23464.711453
 21
13418.393793
 31
0.0
  0
LINE
  5
20FE
100
AcDbEntity
  8
SUPORTL
 62
     5
100
AcDbLine
 10
23215.262968
 20
13561.258811
 30
0.0
 11
23445.33542
 21
13521.523854
 31
0.0
  0
ARC
  5
20FF
100
AcDbEntity
  8
SUPORTL
 62
     5
100
AcDbCircle
 10
23365.272529
 20
13418.412489
 30
0.0
 40
55.0
100
AcDbArc
 50
101.9
 51
261.717
  0
LINE
  5
2100
100
AcDbEntity
  8
SUPORTL
 62
     5
100
AcDbLine
 10
22860.339019
 20
14623.228923
 30
0.0
 11
23351.730627
 21
14667.775393
 31
0.0
  0
CIRCLE
  5
2101
100
AcDbEntity
  8
SUPORTL
 62
     5
100
AcDbCircle
 10
23365.328294
 20
14518.404869
 30
0.0
 40
45.0
  0
LINE
  5
2102
100
AcDbEntity
  8
SUPORTL
 62
     5
100
AcDbLine
 10
21291.776399
 20
13169.45239
 30
0.0
 11
22884.607248
 21
14329.195069
 31
0.0
  0
LINE
  5
2103
100
AcDbEntity
  8
SUPORTL
 62
     5
100
AcDbLine
 10
22268.633921
 20
13880.703908
 30
0.0
 11
21389.213764
 21
14228.874534
 31
0.0
  0
LINE
  5
2104
100
AcDbEntity
  8
SUPORTL
 62
     5
100
AcDbLine
 10
21385.317268
 20
12944.979438
 30
0.0
 11
22175.140461
 21
13073.280541
 31
0.0
  0
LINE
  5
2105
100
AcDbEntity
  8
SUPORTL
 62
     5
100
AcDbLine
 10
21515.270353
 20
13332.178693
 30
0.0
 11
21302.407961
 21
14152.081094
 31
0.0
  0
CIRCLE
  5
2106
100
AcDbEntity
  8
SUPORTL
 62
     5
100
AcDbCircle
 10
21365.270425
 20
14168.442039
 30
0.0
 40
30.0
  0
LINE
  5
2107
100
AcDbEntity
  8
SUPORTL
 62
     5
100
AcDbLine
 10
21365.329327
 20
14260.823457
 30
0.0
 11
21365.282505
 21
14094.690836
 31
0.0
  0
CIRCLE
  5
2108
100
AcDbEntity
  8
SUPORTL
 62
     5
100
AcDbCircle
 10
21365.270425
 20
14168.442039
 30
0.0
 40
30.25
  0
POINT
  5
2109
100
AcDbEntity
  8
SUPORTL
 62
     5
100
AcDbPoint
 10
21365.315304
 20
13068.453705
 30
0.0
  0
ARC
  5
210A
100
AcDbEntity
  8
SUPORTL
 62
     5
100
AcDbCircle
 10
21365.313915
 20
13068.437471
 30
0.0
 40
125.0
100
AcDbArc
 50
126.0581
 51
279.221
  0
LINE
  5
210B
100
AcDbEntity
  8
SUPORTL
 62
     5
100
AcDbLine
 10
21263.809848
 20
14168.406709
 30
0.0
 11
21440.832585
 21
14168.433263
 31
0.0
  0
ARC
  5
210C
100
AcDbEntity
  8
SUPORTL
 62
     5
100
AcDbCircle
 10
21365.270425
 20
14168.442039
 30
0.0
 40
65.0
100
AcDbArc
 50
68.407
 51
194.547
  0
LINE
  5
210D
100
AcDbEntity
  8
SUPORTL
 62
     5
100
AcDbLine
 10
23205.324782
 20
14216.352943
 30
0.0
 11
23205.281849
 21
13559.562559
 31
0.0
  0
LINE
  5
210E
100
AcDbEntity
  8
SUPORTL
 62
     5
100
AcDbLine
 10
23215.293587
 20
14223.692761
 30
0.0
 11
23215.262968
 21
13561.258811
 31
0.0
  0
LINE
  5
210F
100
AcDbEntity
  8
SUPORTL
 62
     5
100
AcDbLine
 10
22119.544595
 20
13444.321657
 30
0.0
 11
23040.563207
 21
14114.950442
 31
0.0
  0
LINE
  5
2110
100
AcDbEntity
  8
SUPORTL
 62
     5
100
AcDbLine
 10
22127.063465
 20
13369.346484
 30
0.0
 11
22995.524266
 21
13510.344828
 31
0.0
  0
LINE
  5
2111
100
AcDbEntity
  8
SUPORTL
 62
     5
100
AcDbLine
 10
22172.825941
 20
13088.07287
 30
0.0
 11
23041.166779
 21
13229.036412
 31
0.0
  0
LINE
  5
2112
100
AcDbEntity
  8
SUPORTL
 62
     5
100
AcDbLine
 10
22067.821438
 20
13734.48798
 30
0.0
 11
22175.140461
 21
13073.280541
 31
0.0
  0
LINE
  5
2113
100
AcDbEntity
  8
SUPORTL
 62
     5
100
AcDbLine
 10
23041.166779
 20
13229.036412
 30
0.0
 11
23043.586748
 21
13214.19391
 31
0.0
  0
LINE
  5
2114
100
AcDbEntity
  8
SUPORTL
 62
     5
100
AcDbLine
 10
23043.586748
 20
13214.19391
 30
0.0
 11
23215.264805
 21
13242.079472
 31
0.0
  0
LINE
  5
2115
100
AcDbEntity
  8
SUPORTL
 62
     5
100
AcDbLine
 10
22993.108163
 20
13525.163623
 30
0.0
 11
22995.524266
 21
13510.344828
 31
0.0
  0
LINE
  5
2116
100
AcDbEntity
  8
SUPORTL
 62
     5
100
AcDbLine
 10
22993.108163
 20
13525.163623
 30
0.0
 11
23215.262968
 21
13561.258811
 31
0.0
  0
LINE
  5
2117
100
AcDbEntity
  8
SUPORTL
 62
     5
100
AcDbLine
 10
23205.278331
 20
13561.175007
 30
0.0
 11
23215.262968
 21
13561.258811
 31
0.0
  0
LINE
  5
2118
100
AcDbEntity
  8
SUPORTL
 62
     5
100
AcDbLine
 10
23040.563207
 20
14114.950442
 30
0.0
 11
23049.424837
 21
14102.806005
 31
0.0
  0
LINE
  5
2119
100
AcDbEntity
  8
SUPORTL
 62
     5
100
AcDbLine
 10
22820.813341
 20
14535.995668
 30
0.0
 11
22886.002787
 21
14446.584617
 31
0.0
  0
LINE
  5
211A
100
AcDbEntity
  8
SUPORTL
 62
     5
100
AcDbLine
 10
22865.354886
 20
14660.797675
 30
0.0
 11
22865.308063
 21
14494.665054
 31
0.0
  0
ARC
  5
211B
100
AcDbEntity
  8
SUPORTL
 62
     5
100
AcDbCircle
 10
22865.295984
 20
14568.416256
 30
0.0
 40
55.0
100
AcDbArc
 50
95.1874
 51
216.058
  0
LINE
  5
211C
100
AcDbEntity
  8
SUPORTL
 62
     5
100
AcDbLine
 10
22869.84215
 20
14349.429927
 30
0.0
 11
22884.607248
 21
14329.195069
 31
0.0
  0
LINE
  5
211D
100
AcDbEntity
  8
SUPORTL
 62
     5
100
AcDbLine
 10
22869.84215
 20
14349.429927
 30
0.0
 11
22890.29638
 21
14388.830872
 31
0.0
  0
ARC
  5
211E
100
AcDbEntity
  8
SUPORTL
 62
     5
100
AcDbCircle
 10
22841.520145
 20
14414.164029
 30
0.0
 40
55.0
100
AcDbArc
 50
332.552
 51
36.058
  0
LINE
  5
211F
100
AcDbEntity
  8
SUPORTL
 62
     5
100
AcDbLine
 10
22763.835406
 20
14568.380927
 30
0.0
 11
22940.758888
 21
14568.419667
 31
0.0
  0
CIRCLE
  5
2120
100
AcDbEntity
  8
SUPORTL
 62
     5
100
AcDbCircle
 10
22865.295984
 20
14568.416256
 30
0.0
 40
27.5
  0
CIRCLE
  5
2121
100
AcDbEntity
  8
SUPORTL
 62
     5
100
AcDbCircle
 10
22865.295984
 20
14568.416256
 30
0.0
 40
25.0
  0
LINE
  5
2122
100
AcDbEntity
  8
SUPORTL
 62
     5
100
AcDbLine
 10
23365.276986
 20
14712.457562
 30
0.0
 11
23365.289524
 21
13279.877801
 31
0.0
  0
LINE
  5
2123
100
AcDbEntity
  8
SUPORTL
 62
     5
100
AcDbLine
 10
23445.33542
 20
13521.523854
 30
0.0
 11
23445.259288
 21
13499.569487
 31
0.0
  0
LINE
  5
2124
100
AcDbEntity
  8
SUPORTL
 62
     5
100
AcDbLine
 10
23445.316744
 20
13342.491651
 30
0.0
 11
23445.325921
 21
13321.232067
 31
0.0
  0
LINE
  5
2125
100
AcDbEntity
  8
SUPORTL
 62
     5
100
AcDbLine
 10
23436.761496
 20
13352.408189
 30
0.0
 11
23357.37866
 21
13363.968694
 31
0.0
  0
LINE
  5
2126
100
AcDbEntity
  8
SUPORTL
 62
     5
100
AcDbLine
 10
23437.404482
 20
13489.753581
 30
0.0
 11
23353.942413
 21
13472.194163
 31
0.0
  0
ARC
  5
2127
100
AcDbEntity
  8
SUPORTL
 62
     5
100
AcDbCircle
 10
23435.344294
 20
13342.507102
 30
0.0
 40
10.0
100
AcDbArc
 50
0.0
 51
81.717
  0
ARC
  5
2128
100
AcDbEntity
  8
SUPORTL
 62
     5
100
AcDbCircle
 10
23435.286838
 20
13499.584938
 30
0.0
 40
10.0
100
AcDbArc
 50
281.9
 51
0.0
  0
ARC
  5
2129
100
AcDbEntity
  8
SUPORTL
 62
     5
100
AcDbCircle
 10
23365.328294
 20
14518.404869
 30
0.0
 40
150.0
100
AcDbArc
 50
306.058
 51
95.1874
  0
LINE
  5
212A
100
AcDbEntity
  8
SUPORT2
 62
     5
100
AcDbLine
 10
38366.623595
 20
10140.036805
 30
0.0
 11
41521.635114
 21
12864.151949
 31
0.0
  0
LINE
  5
212B
100
AcDbEntity
  8
SUPORT2
 62
     5
100
AcDbLine
 10
37497.626136
 20
14809.274155
 30
0.0
 11
41276.546081
 21
13328.936121
 31
0.0
  0
LINE
  5
212C
100
AcDbEntity
  8
SUPORT2
 62
     5
100
AcDbLine
 10
37472.32232
 20
14733.243063
 30
0.0
 11
41247.34763
 21
13254.4023
 31
0.0
  0
LINE
  5
212D
100
AcDbEntity
  8
SUPORT2
 62
     5
100
AcDbLine
 10
38174.650822
 20
10370.660534
 30
0.0
 11
41425.905342
 21
12979.627058
 31
0.0
  0
LINE
  5
212E
100
AcDbEntity
  8
SUPORT2
 62
     5
100
AcDbLine
 10
32618.548537
 20
16479.001911
 30
0.0
 11
33528.953151
 21
11637.22779
 31
0.0
  0
CIRCLE
  5
212F
100
AcDbEntity
  8
SUPORT2
 62
     5
100
AcDbCircle
 10
37283.13365
 20
14850.328918
 30
0.0
 40
97.9999
  0
ARC
  5
2130
100
AcDbEntity
  8
SUPORT2
 62
     5
100
AcDbCircle
 10
37283.13365
 20
14850.328918
 30
0.0
 40
110.0
100
AcDbArc
 50
47.2785
 51
269.936
  0
LINE
  5
2131
100
AcDbEntity
  8
SUPORT2
  6
CENTER
 62
     5
100
AcDbLine
 10
37326.546581
 20
14960.98861
 30
0.0
 11
37240.289566
 21
14740.888412
 31
0.0
  0
LINE
  5
2132
100
AcDbEntity
  8
SUPORT2
 62
     5
100
AcDbLine
 10
37049.693897
 20
14891.488747
 30
0.0
 11
37161.969521
 21
14787.708285
 31
0.0
  0
LINE
  5
2133
100
AcDbEntity
  8
SUPORT2
 62
     5
100
AcDbLine
 10
32470.75275
 20
16453.528483
 30
0.0
 11
32824.72289
 21
14194.577319
 31
0.0
  0
LINE
  5
2134
100
AcDbEntity
  8
SUPORT2
 62
     5
100
AcDbLine
 10
38165.524625
 20
10362.984432
 30
0.0
 11
34524.455849
 21
7234.289455
 31
0.0
  0
LINE
  5
2135
100
AcDbEntity
  8
SUPORT2
 62
     5
100
AcDbLine
 10
33236.051116
 20
11570.475353
 30
0.0
 11
34079.072967
 21
7120.085868
 31
0.0
  0
LINE
  5
2136
100
AcDbEntity
  8
SUPORT2
 62
     5
100
AcDbLine
 10
33531.734739
 20
11621.461283
 30
0.0
 11
34226.868754
 21
7145.559296
 31
0.0
  0
LINE
  5
2137
100
AcDbEntity
  8
SUPORT2
 62
     5
100
AcDbLine
 10
38357.366275
 20
10132.413681
 30
0.0
 11
34620.422699
 21
7119.023615
 31
0.0
  0
POINT
  5
2138
100
AcDbEntity
  8
SUPORT2
  6
CONTINUOUS
 62
     5
100
AcDbPoint
 10
34198.981621
 20
6865.686169
 30
0.0
  0
LINE
  5
2139
100
AcDbEntity
  8
SUPORT2
  6
CENTER
 62
     5
100
AcDbLine
 10
34289.71563
 20
6881.308903
 30
0.0
 11
34095.9481
 21
6847.945684
 31
0.0
  0
LINE
  5
213A
100
AcDbEntity
  8
SUPORT2
 62
     5
100
AcDbLine
 10
34250.187634
 20
6804.237264
 30
0.0
 11
34457.700184
 21
6976.948589
 31
0.0
  0
LINE
  5
213B
100
AcDbEntity
  8
SUPORT2
 62
     5
100
AcDbLine
 10
34392.913802
 20
7117.291079
 30
0.0
 11
34241.268439
 21
7091.161327
 31
0.0
  0
LINE
  5
213C
100
AcDbEntity
  8
SUPORT2
 62
     5
100
AcDbLine
 10
34074.132689
 20
7119.183841
 30
0.0
 11
34120.13626
 21
6852.12933
 31
0.0
  0
LINE
  5
213D
100
AcDbEntity
  8
SUPORT2
  6
DASHED
 62
     5
100
AcDbLine
 10
34235.290742
 20
6847.777849
 30
0.0
 11
34278.386729
 21
6882.149144
 31
0.0
  0
ARC
  5
213E
100
AcDbEntity
  8
SUPORT2
 62
     5
100
AcDbCircle
 10
34198.993968
 20
6865.722047
 30
0.0
 40
80.0
100
AcDbArc
 50
190.894
 51
311.209
  0
LINE
  5
213F
100
AcDbEntity
  8
SUPORT2
 62
     5
100
AcDbLine
 10
34208.416757
 20
6826.376004
 30
0.0
 11
34235.290742
 21
6847.777849
 31
0.0
  0
LINE
  5
2140
100
AcDbEntity
  8
SUPORT2
 62
     5
100
AcDbLine
 10
34231.848105
 20
7146.369273
 30
0.0
 11
34241.268439
 21
7091.161327
 31
0.0
  0
LINE
  5
2141
100
AcDbEntity
  8
SUPORT2
 62
     5
100
AcDbLine
 10
34231.848105
 20
7146.369273
 30
0.0
 11
34074.132689
 21
7119.183841
 31
0.0
  0
LINE
  5
2142
100
AcDbEntity
  8
SUPORT2
 62
     5
100
AcDbLine
 10
34626.843182
 20
7111.319889
 30
0.0
 11
34518.035366
 21
7241.993181
 31
0.0
  0
LINE
  5
2143
100
AcDbEntity
  8
SUPORT2
 62
     5
100
AcDbLine
 10
34626.843182
 20
7111.319889
 30
0.0
 11
34460.825327
 21
6973.169239
 31
0.0
  0
ARC
  5
2144
100
AcDbEntity
  8
SUPORT2
 62
     5
100
AcDbCircle
 10
34406.506518
 20
7038.433371
 30
0.0
 40
84.9999
100
AcDbArc
 50
129.777
 51
309.777
  0
LINE
  5
2145
100
AcDbEntity
  8
SUPORT2
 62
     5
100
AcDbLine
 10
34518.035366
 20
7241.993181
 30
0.0
 11
34352.056584
 21
7103.750481
 31
0.0
  0
ARC
  5
2146
100
AcDbEntity
  8
SUPORT2
 62
     5
100
AcDbCircle
 10
34406.506518
 20
7038.433371
 30
0.0
 40
80.0
100
AcDbArc
 50
309.776
 51
99.7768
  0
LINE
  5
2147
100
AcDbEntity
  8
SUPORT2
 62
     5
100
AcDbLine
 10
34392.913802
 20
7117.291079
 30
0.0
 11
34285.611082
 21
7098.79415
 31
0.0
  0
LINE
  5
2148
100
AcDbEntity
  8
SUPORT2
 62
     5
100
AcDbLine
 10
32824.648192
 20
14194.578157
 30
0.0
 11
33233.361578
 21
11586.280934
 31
0.0
  0
LINE
  5
2149
100
AcDbEntity
  8
SUPORT2
 62
     5
100
AcDbLine
 10
38363.786758
 20
10124.709955
 30
0.0
 11
38159.104142
 21
10370.688159
 31
0.0
  0
LINE
  5
214A
100
AcDbEntity
  8
SUPORT2
 62
     5
100
AcDbLine
 10
38373.044078
 20
10132.333079
 30
0.0
 11
38168.361462
 21
10378.311283
 31
0.0
  0
ARC
  5
214B
100
AcDbEntity
  8
SUPORT2
 62
     5
100
AcDbCircle
 10
38167.272384
 20
9973.179756
 30
0.0
 40
4.3
100
AcDbArc
 50
219.777
 51
309.777
  0
ARC
  5
214C
100
AcDbEntity
  8
SUPORT2
  6
DASHED
 62
     5
100
AcDbCircle
 10
38167.272384
 20
9973.179756
 30
0.0
 40
2.0
100
AcDbArc
 50
219.777
 51
309.777
  0
ARC
  5
214D
100
AcDbEntity
  8
SUPORT2
 62
     5
100
AcDbCircle
 10
38167.272384
 20
9973.179756
 30
0.0
 40
4.3
100
AcDbArc
 50
219.777
 51
309.777
  0
ARC
  5
214E
100
AcDbEntity
  8
SUPORT2
  6
DASHED
 62
     5
100
AcDbCircle
 10
38167.272384
 20
9973.179756
 30
0.0
 40
2.0
100
AcDbArc
 50
219.777
 51
309.777
  0
LINE
  5
214F
100
AcDbEntity
  8
SUPORT2
  6
DASHED
 62
     5
100
AcDbLine
 10
38353.87468
 20
10155.483331
 30
0.0
 11
38358.425639
 21
10150.136484
 31
0.0
  0
LINE
  5
2150
100
AcDbEntity
  8
SUPORT2
 62
     5
100
AcDbLine
 10
38373.044078
 20
10132.333079
 30
0.0
 11
38363.786758
 21
10124.709955
 31
0.0
  0
LINE
  5
2151
100
AcDbEntity
  8
SUPORT2
  6
DASHED
 62
     5
100
AcDbLine
 10
38187.491787
 20
10355.253082
 30
0.0
 11
38183.12493
 21
10360.678075
 31
0.0
  0
LINE
  5
2152
100
AcDbEntity
  8
SUPORT2
 62
     5
100
AcDbLine
 10
38168.361462
 20
10378.311283
 30
0.0
 11
38159.104142
 21
10370.688159
 31
0.0
  0
LINE
  5
2153
100
AcDbEntity
  8
SUPORT2
 62
     5
100
AcDbLine
 10
37435.921709
 20
14740.170945
 30
0.0
 11
37283.001881
 21
14740.333316
 31
0.0
  0
ARC
  5
2154
100
AcDbEntity
  8
SUPORT2
 62
     5
100
AcDbCircle
 10
37236.596038
 20
14868.597487
 30
0.0
 40
110.0
100
AcDbArc
 50
227.28
 51
248.607
  0
LINE
  5
2155
100
AcDbEntity
  8
SUPORT2
 62
     5
100
AcDbLine
 10
37196.520681
 20
14766.198582
 30
0.0
 11
37243.058294
 21
14747.930013
 31
0.0
  0
ARC
  5
2156
100
AcDbEntity
  8
SUPORT2
 62
     5
100
AcDbCircle
 10
37435.877233
 20
14640.206911
 30
0.0
 40
100.0
100
AcDbArc
 50
68.6072
 51
89.936
  0
LINE
  5
2157
100
AcDbEntity
  8
SUPORT2
 62
     5
100
AcDbLine
 10
39596.366016
 20
13901.232231
 30
0.0
 11
39594.180039
 21
13895.632989
 31
0.0
  0
LINE
  5
2158
100
AcDbEntity
  8
SUPORT2
 62
     5
100
AcDbLine
 10
39594.180039
 20
13895.632989
 30
0.0
 11
39687.255265
 21
13859.095852
 31
0.0
  0
LINE
  5
2159
100
AcDbEntity
  8
SUPORT2
 62
     5
100
AcDbLine
 10
39689.441242
 20
13864.695094
 30
0.0
 11
39687.255265
 21
13859.095852
 31
0.0
  0
CIRCLE
  5
215A
100
AcDbEntity
  8
SUPORT2
  6
CENTER
 62
     5
100
AcDbCircle
 10
32654.517927
 20
15828.657008
 30
0.0
 40
250.0
  0
ARC
  5
215B
100
AcDbEntity
  8
SUPORT2
 62
     5
100
AcDbCircle
 10
32500.828307
 20
16720.503128
 30
0.0
 40
89.9999
100
AcDbArc
 50
73.6994
 51
188.128
  0
CIRCLE
  5
215C
100
AcDbEntity
  8
SUPORT2
 62
     5
100
AcDbCircle
 10
32500.828307
 20
16720.503128
 30
0.0
 40
35.0
  0
LINE
  5
215D
100
AcDbEntity
  8
SUPORT2
 62
     5
100
AcDbLine
 10
32465.773399
 20
16452.718506
 30
0.0
 11
32531.896492
 21
16069.164147
 31
0.0
  0
LINE
  5
215E
100
AcDbEntity
  8
SUPORT2
 62
     5
100
AcDbLine
 10
32650.120625
 20
16484.473037
 30
0.0
 11
32439.233639
 21
16448.188481
 31
0.0
  0
LINE
  5
215F
100
AcDbEntity
  8
SUPORT2
 62
     5
100
AcDbLine
 10
32763.470684
 20
16520.202774
 30
0.0
 11
32436.491124
 21
16463.862938
 31
0.0
  0
LINE
  5
2160
100
AcDbEntity
  8
SUPORT2
  6
DASHED
 62
     5
100
AcDbLine
 10
32446.410753
 20
16465.574942
 30
0.0
 11
32421.423084
 21
16639.866842
 31
0.0
  0
LINE
  5
2161
100
AcDbEntity
  8
SUPORT2
 62
     5
100
AcDbLine
 10
32446.410753
 20
16465.574942
 30
0.0
 11
32441.917161
 21
16491.261079
 31
0.0
  0
LINE
  5
2162
100
AcDbEntity
  8
SUPORT2
 62
     5
100
AcDbLine
 10
32436.491124
 20
16463.862938
 30
0.0
 11
32439.233639
 21
16448.188481
 31
0.0
  0
LINE
  5
2163
100
AcDbEntity
  8
SUPORT2
 62
     5
100
AcDbLine
 10
32421.423084
 20
16639.866842
 30
0.0
 11
32411.718496
 21
16707.773182
 31
0.0
  0
LINE
  5
2164
100
AcDbEntity
  8
SUPORT2
 62
     5
100
AcDbLine
 10
32962.392673
 20
16585.95475
 30
0.0
 11
37047.446441
 21
14985.591292
 31
0.0
  0
LINE
  5
2165
100
AcDbEntity
  8
SUPORT2
 62
     5
100
AcDbLine
 10
32933.194222
 20
16511.42093
 30
0.0
 11
37018.300968
 21
14911.188594
 31
0.0
  0
LINE
  5
2166
100
AcDbEntity
  8
SUPORT2
 62
     5
100
AcDbLine
 10
32896.885662
 20
16518.387884
 30
0.0
 11
32743.965834
 21
16518.550255
 31
0.0
  0
CIRCLE
  5
2167
100
AcDbEntity
  8
SUPORT2
  6
CENTER
 62
     5
100
AcDbCircle
 10
32747.915862
 20
15286.664734
 30
0.0
 40
250.0
  0
CIRCLE
  5
2168
100
AcDbEntity
  8
SUPORT2
  6
CENTER
 62
     5
100
AcDbCircle
 10
32747.915862
 20
15286.664734
 30
0.0
 40
250.0
  0
LINE
  5
2169
100
AcDbEntity
  8
SUPORT2
 62
     5
100
AcDbLine
 10
32647.431088
 20
16500.278618
 30
0.0
 11
32650.120625
 21
16484.473037
 31
0.0
  0
ARC
  5
216A
100
AcDbEntity
  8
SUPORT2
 62
     5
100
AcDbCircle
 10
32896.749135
 20
16418.384777
 30
0.0
 40
100.0
100
AcDbArc
 50
68.6072
 51
89.9356
  0
ARC
  5
216B
100
AcDbEntity
  8
SUPORT2
 62
     5
100
AcDbCircle
 10
32998.890737
 20
16679.122026
 30
0.0
 40
100.0
100
AcDbArc
 50
227.279
 51
248.607
  0
LINE
  5
216C
100
AcDbEntity
  8
SUPORT2
 62
     5
100
AcDbLine
 10
32526.102197
 20
16806.84194
 30
0.0
 11
32799.687204
 21
16726.830509
 31
0.0
  0
LINE
  5
216D
100
AcDbEntity
  8
SUPORT2
 62
     5
100
AcDbLine
 10
32931.038817
 20
16605.562548
 30
0.0
 11
32799.687204
 21
16726.830509
 31
0.0
  0
ARC
  5
216E
100
AcDbEntity
  8
SUPORT2
 62
     5
100
AcDbCircle
 10
36981.802904
 20
14818.021318
 30
0.0
 40
100.0
100
AcDbArc
 50
47.2802
 51
68.6072
  0
ARC
  5
216F
100
AcDbEntity
  8
SUPORT2
 62
     5
100
AcDbCircle
 10
37236.596038
 20
14868.597487
 30
0.0
 40
110.0
100
AcDbArc
 50
68.6072
 51
89.9343
  0
ARC
  5
2170
100
AcDbEntity
  8
SUPORT2
 62
     5
100
AcDbCircle
 10
37083.944506
 20
15078.758568
 30
0.0
 40
100.0
100
AcDbArc
 50
248.607
 51
269.934
  0
LINE
  5
2171
100
AcDbEntity
  8
SUPORT2
 62
     5
100
AcDbLine
 10
37276.763445
 20
14971.035465
 30
0.0
 11
37323.301057
 21
14952.766897
 31
0.0
  0
LINE
  5
2172
100
AcDbEntity
  8
SUPORT2
  6
DASHED
 62
     5
100
AcDbLine
 10
37318.929104
 20
14941.568414
 30
0.0
 11
37272.391492
 21
14959.836982
 31
0.0
  0
LINE
  5
2173
100
AcDbEntity
  8
SUPORT2
 62
     5
100
AcDbLine
 10
37083.807979
 20
14978.755461
 30
0.0
 11
37236.727807
 21
14978.59309
 31
0.0
  0
ARC
  5
2174
100
AcDbEntity
  8
SUPORT2
 62
     5
100
AcDbCircle
 10
37537.965857
 20
14900.813037
 30
0.0
 40
100.0
100
AcDbArc
 50
227.279
 51
248.607
  0
LINE
  5
2175
100
AcDbEntity
  8
SUPORT2
 62
     5
100
AcDbLine
 10
37470.166915
 20
14827.384681
 30
0.0
 11
37357.79924
 21
14931.12607
 31
0.0
  0
LINE
  5
2176
100
AcDbEntity
  8
SUPORT2
 62
     5
100
AcDbLine
 10
41736.613485
 20
13273.925716
 30
0.0
 11
41485.648227
 21
13320.030918
 31
0.0
  0
LINE
  5
2177
100
AcDbEntity
  8
SUPORT2
 62
     5
100
AcDbLine
 10
41534.621108
 20
12848.914693
 30
0.0
 11
41412.919348
 21
12994.864314
 31
0.0
  0
LINE
  5
2178
100
AcDbEntity
  8
SUPORT2
 62
     5
100
AcDbLine
 10
41546.631317
 20
12859.009983
 30
0.0
 11
41424.929558
 21
13004.959603
 31
0.0
  0
LINE
  5
2179
100
AcDbEntity
  8
SUPORT2
 62
     5
100
AcDbLine
 10
41424.929558
 20
13004.959603
 30
0.0
 11
41362.157359
 21
13173.316074
 31
0.0
  0
LINE
  5
217A
100
AcDbEntity
  8
SUPORT2
  6
DASHED
 62
     5
100
AcDbLine
 10
41474.250017
 20
12922.038844
 30
0.0
 11
41468.106391
 21
12926.2751
 31
0.0
  0
LINE
  5
217B
100
AcDbEntity
  8
SUPORT2
 62
     5
100
AcDbLine
 10
41424.929558
 20
13004.959603
 30
0.0
 11
41412.919348
 21
12994.864314
 31
0.0
  0
ARC
  5
217C
100
AcDbEntity
  8
SUPORT2
 62
     5
100
AcDbCircle
 10
41210.849566
 20
13161.235024
 30
0.0
 40
100.0
100
AcDbArc
 50
47.2797
 51
68.6072
  0
ARC
  5
217D
100
AcDbEntity
  8
SUPORT2
 62
     5
100
AcDbCircle
 10
41313.083219
 20
13422.011346
 30
0.0
 40
100.0
100
AcDbArc
 50
248.607
 51
269.935
  0
LINE
  5
217E
100
AcDbEntity
  8
SUPORT2
 62
     5
100
AcDbLine
 10
41278.517385
 20
13234.716357
 30
0.0
 11
41371.47401
 21
13148.808115
 31
0.0
  0
LINE
  5
217F
100
AcDbEntity
  8
SUPORT2
 62
     5
100
AcDbLine
 10
41313.130793
 20
13322.086386
 30
0.0
 11
41465.406267
 21
13321.650503
 31
0.0
  0
ARC
  5
2180
100
AcDbEntity
  8
SUPORT2
 62
     5
100
AcDbCircle
 10
41465.366549
 20
13211.693973
 30
0.0
 40
110.0
100
AcDbArc
 50
79.5989
 51
200.374
  0
ARC
  5
2181
100
AcDbEntity
  8
SUPORT2
 62
     5
100
AcDbCircle
 10
41707.771663
 20
13116.653979
 30
0.0
 40
272.5
100
AcDbArc
 50
333.79499
 51
133.642
  0
ARC
  5
2182
100
AcDbEntity
  8
SUPORT2
 62
     5
100
AcDbCircle
 10
41707.771663
 20
13116.653979
 30
0.0
 40
160.0
100
AcDbArc
 50
327.864265
 51
79.5988
  0
LINE
  5
2183
100
AcDbEntity
  8
SUPORT2
 62
     5
100
AcDbLine
 10
41546.631317
 20
12859.009983
 30
0.0
 11
41534.621108
 21
12848.914693
 31
0.0
  0
LINE
  5
2184
100
AcDbEntity
  8
SUPORT2
 62
     5
100
AcDbLine
 10
41546.631317
 20
12859.009983
 30
0.0
 11
41778.495041
 21
12973.073884
 31
0.0
  0
ARC
  5
2185
100
AcDbEntity
  8
SUPORT2
 62
     5
100
AcDbCircle
 10
41707.771663
 20
13116.653979
 30
0.0
 40
272.5
100
AcDbArc
 50
242.158
 51
333.79499
  0
ARC
  5
2186
100
AcDbEntity
  8
SUPORT2
 62
     5
100
AcDbCircle
 10
41707.771663
 20
13116.653979
 30
0.0
 40
160.0
100
AcDbArc
 50
296.202
 51
327.864265
  0
LINE
  5
2187
100
AcDbEntity
  8
LJ
 62
     5
100
AcDbLine
 10
60997.556858
 20
23294.987009
 30
0.0
 11
52939.941497
 21
23294.920586
 31
0.0
  0
LINE
  5
2188
100
AcDbEntity
  8
LJ
 62
     5
100
AcDbLine
 10
60776.109516
 20
24045.742019
 30
0.0
 11
53230.100006
 21
24045.765998
 31
0.0
  0
LINE
  5
2189
100
AcDbEntity
  8
LJ
 62
     5
100
AcDbLine
 10
60776.098834
 20
23944.162789
 30
0.0
 11
53230.076395
 21
23944.186769
 31
0.0
  0
LINE
  5
218A
100
AcDbEntity
  8
LJ
 62
     5
100
AcDbLine
 10
60776.073733
 20
22645.784612
 30
0.0
 11
53230.119048
 21
22645.742358
 31
0.0
  0
LINE
  5
218B
100
AcDbEntity
  8
LJ
 62
     5
100
AcDbLine
 10
60776.080662
 20
22544.205382
 30
0.0
 11
53230.095437
 21
22544.163128
 31
0.0
  0
LINE
  5
218C
100
AcDbEntity
  8
LJ
 62
     5
100
AcDbLine
 10
53910.364665
 20
23994.943554
 30
0.0
 11
53330.924899
 21
22594.945337
 31
0.0
  0
LINE
  5
218D
100
AcDbEntity
  8
LJ
 62
     5
100
AcDbLine
 10
53910.291665
 20
22594.919949
 30
0.0
 11
53330.905849
 21
23994.929869
 31
0.0
  0
POINT
  5
218E
100
AcDbEntity
  8
LJ
 62
     5
100
AcDbPoint
 10
53103.094842
 20
23294.921931
 30
0.0
  0
LINE
  5
218F
100
AcDbEntity
  8
LJ
 62
     5
100
AcDbLine
 10
53103.106651
 20
24121.59054
 30
0.0
 11
53103.083066
 21
22470.638663
 31
0.0
  0
LINE
  5
2190
100
AcDbEntity
  8
LJ
 62
     5
100
AcDbLine
 10
53250.133405
 20
23944.131323
 30
0.0
 11
53250.124064
 21
22645.818071
 31
0.0
  0
LINE
  5
2191
100
AcDbEntity
  8
LJ
 62
     5
100
AcDbLine
 10
53307.04209
 20
23944.170426
 30
0.0
 11
53307.071823
 21
22645.765124
 31
0.0
  0
LINE
  5
2192
100
AcDbEntity
  8
LJ
 62
     5
100
AcDbLine
 10
53103.075159
 20
24097.351336
 30
0.0
 11
53103.094669
 21
22496.716237
 31
0.0
  0
ARC
  5
2193
100
AcDbEntity
  8
LJ
 62
     5
100
AcDbCircle
 10
53103.119961
 20
22594.933951
 30
0.0
 40
75.0
100
AcDbArc
 50
80.4019
 51
279.598
  0
LINE
  5
2194
100
AcDbEntity
  8
LJ
 62
     5
100
AcDbLine
 10
53008.104094
 20
22654.981807
 30
0.0
 11
53090.613373
 21
22668.929527
 31
0.0
  0
LINE
  5
2195
100
AcDbEntity
  8
LJ
 62
     5
100
AcDbLine
 10
53008.108206
 20
22534.940731
 30
0.0
 11
53090.625772
 21
22520.972507
 31
0.0
  0
ARC
  5
2196
100
AcDbEntity
  8
LJ
 62
     5
100
AcDbCircle
 10
53103.119961
 20
22594.933951
 30
0.0
 40
74.9999
100
AcDbArc
 50
260.403
 51
99.5975
  0
LINE
  5
2197
100
AcDbEntity
  8
LJ
 62
     5
100
AcDbLine
 10
52976.117578
 20
22529.943762
 30
0.0
 11
52976.108708
 21
22659.977334
 31
0.0
  0
LINE
  5
2198
100
AcDbEntity
  8
LJ
 62
     5
100
AcDbLine
 10
53008.06456
 20
22529.924946
 30
0.0
 11
53008.05569
 21
22659.958519
 31
0.0
  0
LINE
  5
2199
100
AcDbEntity
  8
LJ
 62
     5
100
AcDbLine
 10
53008.05569
 20
22659.958519
 30
0.0
 11
52976.108708
 21
22659.977334
 31
0.0
  0
LINE
  5
219A
100
AcDbEntity
  8
LJ
 62
     5
100
AcDbLine
 10
53008.06456
 20
22529.924946
 30
0.0
 11
52976.117578
 21
22529.943762
 31
0.0
  0
LINE
  5
219B
100
AcDbEntity
  8
LJ
 62
     5
100
AcDbLine
 10
53198.096755
 20
22534.978145
 30
0.0
 11
53115.587476
 21
22521.030426
 31
0.0
  0
LINE
  5
219C
100
AcDbEntity
  8
LJ
 62
     5
100
AcDbLine
 10
53230.122344
 20
22659.92414
 30
0.0
 11
53230.09214
 21
22529.982618
 31
0.0
  0
LINE
  5
219D
100
AcDbEntity
  8
LJ
 62
     5
100
AcDbLine
 10
53198.083312
 20
22659.903883
 30
0.0
 11
53230.122344
 21
22659.92414
 31
0.0
  0
LINE
  5
219E
100
AcDbEntity
  8
LJ
 62
     5
100
AcDbLine
 10
53198.083312
 20
22659.903883
 30
0.0
 11
53198.053108
 21
22529.962361
 31
0.0
  0
LINE
  5
219F
100
AcDbEntity
  8
LJ
 62
     5
100
AcDbLine
 10
53198.053108
 20
22529.962361
 30
0.0
 11
53230.09214
 21
22529.982618
 31
0.0
  0
LINE
  5
21A0
100
AcDbEntity
  8
LJ
 62
     5
100
AcDbLine
 10
53198.131716
 20
22654.927171
 30
0.0
 11
53115.61415
 21
22668.895395
 31
0.0
  0
LINE
  5
21A1
100
AcDbEntity
  8
LJ
 62
     5
100
AcDbLine
 10
53236.982544
 20
22544.205569
 30
0.0
 11
53234.067377
 21
22544.163151
 31
0.0
  0
ARC
  5
21A2
100
AcDbEntity
  8
LJ
 62
     5
100
AcDbCircle
 10
53103.10091
 20
23994.918483
 30
0.0
 40
75.0
100
AcDbArc
 50
80.4019
 51
279.598
  0
LINE
  5
21A3
100
AcDbEntity
  8
LJ
 62
     5
100
AcDbLine
 10
53008.089156
 20
23934.925263
 30
0.0
 11
53090.606722
 21
23920.957039
 31
0.0
  0
LINE
  5
21A4
100
AcDbEntity
  8
LJ
 62
     5
100
AcDbLine
 10
53008.085044
 20
24054.966339
 30
0.0
 11
53090.594323
 21
24068.914059
 31
0.0
  0
ARC
  5
21A5
100
AcDbEntity
  8
LJ
 62
     5
100
AcDbCircle
 10
53103.10091
 20
23994.918483
 30
0.0
 40
74.9999
100
AcDbArc
 50
260.403
 51
99.5975
  0
LINE
  5
21A6
100
AcDbEntity
  8
LJ
 62
     5
100
AcDbLine
 10
53008.12869
 20
24059.982124
 30
0.0
 11
53008.13756
 21
23929.948552
 31
0.0
  0
LINE
  5
21A7
100
AcDbEntity
  8
LJ
 62
     5
100
AcDbLine
 10
53008.13756
 20
23929.948552
 30
0.0
 11
52976.098527
 21
23929.928294
 31
0.0
  0
LINE
  5
21A8
100
AcDbEntity
  8
LJ
 62
     5
100
AcDbLine
 10
52976.089658
 20
24059.961866
 30
0.0
 11
52976.098527
 21
23929.928294
 31
0.0
  0
LINE
  5
21A9
100
AcDbEntity
  8
LJ
 62
     5
100
AcDbLine
 10
53008.12869
 20
24059.982124
 30
0.0
 11
52976.089658
 21
24059.961866
 31
0.0
  0
LINE
  5
21AA
100
AcDbEntity
  8
LJ
 62
     5
100
AcDbLine
 10
53198.077704
 20
23934.962677
 30
0.0
 11
53115.568425
 21
23921.014958
 31
0.0
  0
LINE
  5
21AB
100
AcDbEntity
  8
LJ
 62
     5
100
AcDbLine
 10
53198.156312
 20
24059.927488
 30
0.0
 11
53230.103294
 21
24059.908672
 31
0.0
  0
LINE
  5
21AC
100
AcDbEntity
  8
LJ
 62
     5
100
AcDbLine
 10
53230.103294
 20
24059.908672
 30
0.0
 11
53230.07309
 21
23929.96715
 31
0.0
  0
LINE
  5
21AD
100
AcDbEntity
  8
LJ
 62
     5
100
AcDbLine
 10
53198.156312
 20
24059.927488
 30
0.0
 11
53198.126108
 21
23929.985966
 31
0.0
  0
LINE
  5
21AE
100
AcDbEntity
  8
LJ
 62
     5
100
AcDbLine
 10
53198.126108
 20
23929.985966
 30
0.0
 11
53230.07309
 21
23929.96715
 31
0.0
  0
LINE
  5
21AF
100
AcDbEntity
  8
LJ
 62
     5
100
AcDbLine
 10
53198.112665
 20
24054.911703
 30
0.0
 11
53115.595099
 21
24068.879927
 31
0.0
  0
LINE
  5
21B0
100
AcDbEntity
  8
LJ
 62
     5
100
AcDbLine
 10
55170.606523
 20
23944.11897
 30
0.0
 11
55170.597183
 21
22645.805718
 31
0.0
  0
LINE
  5
21B1
100
AcDbEntity
  8
LJ
 62
     5
100
AcDbLine
 10
55227.607259
 20
23944.197146
 30
0.0
 11
55227.636992
 21
22645.791844
 31
0.0
  0
LINE
  5
21B2
100
AcDbEntity
  8
LJ
 62
     5
100
AcDbLine
 10
54609.571699
 20
22648.945168
 30
0.0
 11
54556.878152
 21
22648.957108
 31
0.0
  0
LINE
  5
21B3
100
AcDbEntity
  8
LJ
 62
     5
100
AcDbLine
 10
54556.878152
 20
22648.957108
 30
0.0
 11
54530.039005
 21
22648.971351
 31
0.0
  0
LINE
  5
21B4
100
AcDbEntity
  8
LJ
 62
     5
100
AcDbLine
 10
54530.039005
 20
22648.971351
 30
0.0
 11
54530.137041
 21
22646.94888
 31
0.0
  0
LINE
  5
21B5
100
AcDbEntity
  8
LJ
 62
     5
100
AcDbLine
 10
54610.110097
 20
22648.956433
 30
0.0
 11
54609.571699
 21
22648.945168
 31
0.0
  0
LINE
  5
21B6
100
AcDbEntity
  8
LJ
 62
     5
100
AcDbLine
 10
54610.110097
 20
22648.956433
 30
0.0
 11
54610.046561
 21
22645.779018
 31
0.0
  0
LINE
  5
21B7
100
AcDbEntity
  8
LJ
 62
     5
100
AcDbLine
 10
55760.596234
 20
23944.148677
 30
0.0
 11
55760.625967
 21
22645.743374
 31
0.0
  0
LINE
  5
21B8
100
AcDbEntity
  8
LJ
 62
     5
100
AcDbLine
 10
55703.556425
 20
23944.162551
 30
0.0
 11
55703.586158
 21
22645.757248
 31
0.0
  0
LINE
  5
21B9
100
AcDbEntity
  8
LJ
 62
     5
100
AcDbLine
 10
60799.758469
 20
22594.951604
 30
0.0
 11
61030.0713
 21
22594.941167
 31
0.0
  0
LINE
  5
21BA
100
AcDbEntity
  8
LJ
 62
     5
100
AcDbLine
 10
60998.13942
 20
22659.930743
 30
0.0
 11
60911.312731
 21
22669.462588
 31
0.0
  0
LINE
  5
21BB
100
AcDbEntity
  8
LJ
 62
     5
100
AcDbLine
 10
60998.109216
 20
22529.989221
 30
0.0
 11
60911.255609
 21
22520.389698
 31
0.0
  0
ARC
  5
21BC
100
AcDbEntity
  8
LJ
 62
     5
100
AcDbCircle
 10
60903.084019
 20
22594.921739
 30
0.0
 40
74.9999
100
AcDbArc
 50
83.7211
 51
276.279
  0
ARC
  5
21BD
100
AcDbEntity
  8
LJ
 62
     5
100
AcDbCircle
 10
60903.084019
 20
22594.921739
 30
0.0
 40
75.0
100
AcDbArc
 50
260.402
 51
99.598
  0
LINE
  5
21BE
100
AcDbEntity
  8
LJ
 62
     5
100
AcDbLine
 10
60998.090166
 20
23929.973753
 30
0.0
 11
60911.328609
 21
23920.413303
 31
0.0
  0
LINE
  5
21BF
100
AcDbEntity
  8
LJ
 62
     5
100
AcDbLine
 10
60998.120369
 20
24059.915275
 30
0.0
 11
60911.29368
 21
24069.44712
 31
0.0
  0
ARC
  5
21C0
100
AcDbEntity
  8
LJ
 62
     5
100
AcDbCircle
 10
60903.064968
 20
23994.906271
 30
0.0
 40
74.9999
100
AcDbArc
 50
83.7211
 51
276.279
  0
ARC
  5
21C1
100
AcDbEntity
  8
LJ
 62
     5
100
AcDbCircle
 10
60903.064968
 20
23994.906271
 30
0.0
 40
75.0
100
AcDbArc
 50
260.402
 51
99.598
  0
POINT
  5
21C2
100
AcDbEntity
  8
LJ
 62
     5
100
AcDbPoint
 10
60903.085434
 20
23294.98623
 30
0.0
  0
LINE
  5
21C3
100
AcDbEntity
  8
LJ
 62
     5
100
AcDbLine
 10
60903.071077
 20
24091.377665
 30
0.0
 11
60903.064005
 21
22498.22717
 31
0.0
  0
LINE
  5
21C4
100
AcDbEntity
  8
LJ
 62
     5
100
AcDbLine
 10
60903.064723
 20
24123.639871
 30
0.0
 11
60903.106086
 21
22468.69603
 31
0.0
  0
LINE
  5
21C5
100
AcDbEntity
  8
LJ
 62
     5
100
AcDbLine
 10
60756.113842
 20
23944.153274
 30
0.0
 11
60756.143575
 21
22645.747972
 31
0.0
  0
LINE
  5
21C6
100
AcDbEntity
  8
LJ
 62
     5
100
AcDbLine
 10
60699.074033
 20
23944.167148
 30
0.0
 11
60699.103766
 21
22645.761846
 31
0.0
  0
LINE
  5
21C7
100
AcDbEntity
  8
LJ
 62
     5
100
AcDbLine
 10
60675.371131
 20
22594.949426
 30
0.0
 11
60095.893264
 21
23994.920273
 31
0.0
  0
LINE
  5
21C8
100
AcDbEntity
  8
LJ
 62
     5
100
AcDbLine
 10
60675.35208
 20
23994.933958
 30
0.0
 11
60095.912314
 21
22594.935741
 31
0.0
  0
LINE
  5
21C9
100
AcDbEntity
  8
LJ
 62
     5
100
AcDbLine
 10
60808.072264
 20
22534.928519
 30
0.0
 11
60890.58983
 21
22520.960294
 31
0.0
  0
LINE
  5
21CA
100
AcDbEntity
  8
LJ
 62
     5
100
AcDbLine
 10
60808.111798
 20
22659.985379
 30
0.0
 11
60776.072766
 21
22659.965122
 31
0.0
  0
LINE
  5
21CB
100
AcDbEntity
  8
LJ
 62
     5
100
AcDbLine
 10
60776.072766
 20
22659.965122
 30
0.0
 11
60776.081635
 21
22529.93155
 31
0.0
  0
LINE
  5
21CC
100
AcDbEntity
  8
LJ
 62
     5
100
AcDbLine
 10
60808.111798
 20
22659.985379
 30
0.0
 11
60808.120668
 21
22529.951807
 31
0.0
  0
LINE
  5
21CD
100
AcDbEntity
  8
LJ
 62
     5
100
AcDbLine
 10
60808.120668
 20
22529.951807
 30
0.0
 11
60776.081635
 21
22529.93155
 31
0.0
  0
LINE
  5
21CE
100
AcDbEntity
  8
LJ
 62
     5
100
AcDbLine
 10
60808.068152
 20
22654.969595
 30
0.0
 11
60890.577431
 21
22668.917315
 31
0.0
  0
LINE
  5
21CF
100
AcDbEntity
  8
LJ
 62
     5
100
AcDbLine
 10
60772.086847
 20
22544.20536
 30
0.0
 11
60769.26373
 21
22544.202014
 31
0.0
  0
LINE
  5
21D0
100
AcDbEntity
  8
LJ
 62
     5
100
AcDbLine
 10
60808.092748
 20
24059.969911
 30
0.0
 11
60808.101617
 21
23929.936339
 31
0.0
  0
LINE
  5
21D1
100
AcDbEntity
  8
LJ
 62
     5
100
AcDbLine
 10
60776.053715
 20
24059.949654
 30
0.0
 11
60776.062585
 21
23929.916081
 31
0.0
  0
LINE
  5
21D2
100
AcDbEntity
  8
LJ
 62
     5
100
AcDbLine
 10
60808.092748
 20
24059.969911
 30
0.0
 11
60776.053715
 21
24059.949654
 31
0.0
  0
LINE
  5
21D3
100
AcDbEntity
  8
LJ
 62
     5
100
AcDbLine
 10
60808.101617
 20
23929.936339
 30
0.0
 11
60776.062585
 21
23929.916081
 31
0.0
  0
LINE
  5
21D4
100
AcDbEntity
  8
LJ
 62
     5
100
AcDbLine
 10
60808.049101
 20
24054.954127
 30
0.0
 11
60890.55838
 21
24068.901846
 31
0.0
  0
LINE
  5
21D5
100
AcDbEntity
  8
LJ
 62
     5
100
AcDbLine
 10
60808.145264
 20
23934.952124
 30
0.0
 11
60890.570779
 21
23920.944826
 31
0.0
  0
LINE
  5
21D6
100
AcDbEntity
  8
LJ
 62
     5
100
AcDbLine
 10
61030.086402
 20
22659.911928
 30
0.0
 11
61030.056198
 21
22529.970406
 31
0.0
  0
LINE
  5
21D7
100
AcDbEntity
  8
LJ
 62
     5
100
AcDbLine
 10
60998.109216
 20
22529.989221
 30
0.0
 11
61030.056198
 21
22529.970406
 31
0.0
  0
LINE
  5
21D8
100
AcDbEntity
  8
LJ
 62
     5
100
AcDbLine
 10
60998.13942
 20
22659.930743
 30
0.0
 11
61030.086402
 21
22659.911928
 31
0.0
  0
LINE
  5
21D9
100
AcDbEntity
  8
LJ
 62
     5
100
AcDbLine
 10
61022.571594
 20
22529.943825
 30
0.0
 11
61030.056198
 21
22529.970406
 31
0.0
  0
LINE
  5
21DA
100
AcDbEntity
  8
LJ
 62
     5
100
AcDbLine
 10
60998.090166
 20
23929.973753
 30
0.0
 11
61030.129198
 21
23929.994011
 31
0.0
  0
LINE
  5
21DB
100
AcDbEntity
  8
LJ
 62
     5
100
AcDbLine
 10
61030.067351
 20
24059.89646
 30
0.0
 11
61030.129198
 21
23929.994011
 31
0.0
  0
LINE
  5
21DC
100
AcDbEntity
  8
LJ
 62
     5
100
AcDbLine
 10
60998.120369
 20
24059.915275
 30
0.0
 11
61030.067351
 21
24059.89646
 31
0.0
  0
LINE
  5
21DD
100
AcDbEntity
  8
LJ
 62
     5
100
AcDbLine
 10
40151.026138
 20
22639.180401
 30
0.0
 11
48896.98431
 21
22639.20744
 31
0.0
  0
LINE
  5
21DE
100
AcDbEntity
  8
LJ
 62
     5
100
AcDbLine
 10
40151.000158
 20
24140.752092
 30
0.0
 11
48896.98887
 21
24140.771198
 31
0.0
  0
LINE
  5
21DF
100
AcDbEntity
  8
LJ
 62
     5
100
AcDbLine
 10
40624.393527
 20
24039.187202
 30
0.0
 11
48896.965259
 21
24039.191962
 31
0.0
  0
LINE
  5
21E0
100
AcDbEntity
  8
LJ
 62
     5
100
AcDbLine
 10
40624.423259
 20
22740.7819
 30
0.0
 11
48897.007921
 21
22740.78666
 31
0.0
  0
LINE
  5
21E1
100
AcDbEntity
  8
LJ
 62
     5
100
AcDbLine
 10
40818.697179
 20
23390.000495
 30
0.0
 11
49159.357989
 21
23389.95249
 31
0.0
  0
LINE
  5
21E2
100
AcDbEntity
  8
LJ
 62
     5
100
AcDbLine
 10
40234.366904
 20
24045.384299
 30
0.0
 11
40624.375571
 21
24045.371834
 31
0.0
  0
LINE
  5
21E3
100
AcDbEntity
  8
LJ
 62
     5
100
AcDbLine
 10
40234.432549
 20
22734.609732
 30
0.0
 11
40624.441215
 21
22734.597267
 31
0.0
  0
LINE
  5
21E4
100
AcDbEntity
  8
LJ
 62
     5
100
AcDbLine
 10
39887.492434
 20
23389.945437
 30
0.0
 11
40718.864269
 21
23389.991993
 31
0.0
  0
LINE
  5
21E5
100
AcDbEntity
  8
LJ
 62
     5
100
AcDbLine
 10
40945.248123
 20
24089.993972
 30
0.0
 11
40262.298707
 21
22689.947475
 31
0.0
  0
LINE
  5
21E6
100
AcDbEntity
  8
LJ
 62
     5
100
AcDbLine
 10
40945.267174
 20
22690.00944
 30
0.0
 11
40262.240584
 21
24090.024057
 31
0.0
  0
POINT
  5
21E7
100
AcDbEntity
  8
LJ
 62
     5
100
AcDbPoint
 10
40023.976113
 20
23389.95308
 30
0.0
  0
LINE
  5
21E8
100
AcDbEntity
  8
LJ
 62
     5
100
AcDbLine
 10
40180.959474
 20
22740.808944
 30
0.0
 11
40181.060864
 21
24039.161269
 31
0.0
  0
LINE
  5
21E9
100
AcDbEntity
  8
LJ
 62
     5
100
AcDbLine
 10
40224.379166
 20
24035.387045
 30
0.0
 11
40224.435295
 21
22744.597471
 31
0.0
  0
LINE
  5
21EA
100
AcDbEntity
  8
LJ
 62
     5
100
AcDbLine
 10
40023.963837
 20
24186.599168
 30
0.0
 11
40023.989178
 21
22542.186221
 31
0.0
  0
LINE
  5
21EB
100
AcDbEntity
  8
LJ
 62
     5
100
AcDbLine
 10
40118.988072
 20
22624.98755
 30
0.0
 11
40151.027104
 21
22625.007807
 31
0.0
  0
LINE
  5
21EC
100
AcDbEntity
  8
LJ
 62
     5
100
AcDbLine
 10
40118.979202
 20
22755.021122
 30
0.0
 11
40151.018235
 21
22755.04138
 31
0.0
  0
LINE
  5
21ED
100
AcDbEntity
  8
LJ
 62
     5
100
AcDbLine
 10
40151.027104
 20
22625.007807
 30
0.0
 11
40151.018235
 21
22755.04138
 31
0.0
  0
LINE
  5
21EE
100
AcDbEntity
  8
LJ
 62
     5
100
AcDbLine
 10
40118.988072
 20
22624.98755
 30
0.0
 11
40118.979202
 21
22755.021122
 31
0.0
  0
LINE
  5
21EF
100
AcDbEntity
  8
LJ
 62
     5
100
AcDbLine
 10
40151.019208
 20
22740.767087
 30
0.0
 11
40228.229961
 21
22740.776409
 31
0.0
  0
LINE
  5
21F0
100
AcDbEntity
  8
LJ
 62
     5
100
AcDbLine
 10
40155.002341
 20
22639.18834
 30
0.0
 11
40157.287059
 21
22639.180421
 31
0.0
  0
LINE
  5
21F1
100
AcDbEntity
  8
LJ
 62
     5
100
AcDbLine
 10
40224.435295
 20
22744.597471
 30
0.0
 11
40234.432549
 21
22734.609732
 31
0.0
  0
LINE
  5
21F2
100
AcDbEntity
  8
LJ
 62
     5
100
AcDbLine
 10
39897.043672
 20
22755.002523
 30
0.0
 11
39897.052542
 21
22624.968951
 31
0.0
  0
LINE
  5
21F3
100
AcDbEntity
  8
LJ
 62
     5
100
AcDbLine
 10
39929.091574
 20
22624.989209
 30
0.0
 11
39897.052542
 21
22624.968951
 31
0.0
  0
LINE
  5
21F4
100
AcDbEntity
  8
LJ
 62
     5
100
AcDbLine
 10
39929.082704
 20
22755.022781
 30
0.0
 11
39897.043672
 21
22755.002523
 31
0.0
  0
LINE
  5
21F5
100
AcDbEntity
  8
LJ
 62
     5
100
AcDbLine
 10
39929.039058
 20
22750.006996
 30
0.0
 11
40011.548337
 21
22763.954716
 31
0.0
  0
LINE
  5
21F6
100
AcDbEntity
  8
LJ
 62
     5
100
AcDbLine
 10
39929.082704
 20
22755.022781
 30
0.0
 11
39929.091574
 21
22624.989209
 31
0.0
  0
LINE
  5
21F7
100
AcDbEntity
  8
LJ
 62
     5
100
AcDbLine
 10
39929.04317
 20
22629.96592
 30
0.0
 11
40011.560736
 21
22615.997696
 31
0.0
  0
LINE
  5
21F8
100
AcDbEntity
  8
LJ
 62
     5
100
AcDbLine
 10
40119.06668
 20
22749.95236
 30
0.0
 11
40036.549113
 21
22763.920585
 31
0.0
  0
LINE
  5
21F9
100
AcDbEntity
  8
LJ
 62
     5
100
AcDbLine
 10
40119.031719
 20
22630.003334
 30
0.0
 11
40036.52244
 21
22616.055615
 31
0.0
  0
ARC
  5
21FA
100
AcDbEntity
  8
LJ
 62
     5
100
AcDbCircle
 10
40024.054925
 20
22689.95914
 30
0.0
 40
75.0
100
AcDbArc
 50
80.4019
 51
279.598
  0
LINE
  5
21FB
100
AcDbEntity
  8
LJ
 62
     5
100
AcDbLine
 10
39897.067643
 20
22689.939712
 30
0.0
 11
40131.372439
 21
22689.994222
 31
0.0
  0
ARC
  5
21FC
100
AcDbEntity
  8
LJ
 62
     5
100
AcDbCircle
 10
40024.054925
 20
22689.95914
 30
0.0
 40
74.9999
100
AcDbArc
 50
260.403
 51
99.5975
  0
LINE
  5
21FD
100
AcDbEntity
  8
LJ
 62
     5
100
AcDbLine
 10
40171.976474
 20
24187.504263
 30
0.0
 11
40172.024724
 21
24140.811248
 31
0.0
  0
LINE
  5
21FE
100
AcDbEntity
  8
LJ
 62
     5
100
AcDbLine
 10
40119.047629
 20
24149.936892
 30
0.0
 11
40036.530063
 21
24163.905116
 31
0.0
  0
LINE
  5
21FF
100
AcDbEntity
  8
LJ
 62
     5
100
AcDbLine
 10
40151.007087
 20
24039.172392
 30
0.0
 11
40228.200228
 21
24039.181711
 31
0.0
  0
LINE
  5
2200
100
AcDbEntity
  8
LJ
 62
     5
100
AcDbLine
 10
40118.969022
 20
24024.972082
 30
0.0
 11
40151.008054
 21
24024.992339
 31
0.0
  0
LINE
  5
2201
100
AcDbEntity
  8
LJ
 62
     5
100
AcDbLine
 10
40118.960152
 20
24155.005654
 30
0.0
 11
40150.999184
 21
24155.025912
 31
0.0
  0
LINE
  5
2202
100
AcDbEntity
  8
LJ
 62
     5
100
AcDbLine
 10
40151.008054
 20
24024.992339
 30
0.0
 11
40150.999184
 21
24155.025912
 31
0.0
  0
LINE
  5
2203
100
AcDbEntity
  8
LJ
 62
     5
100
AcDbLine
 10
40118.969022
 20
24024.972082
 30
0.0
 11
40118.960152
 21
24155.005654
 31
0.0
  0
LINE
  5
2204
100
AcDbEntity
  8
LJ
 62
     5
100
AcDbLine
 10
40119.012668
 20
24029.987866
 30
0.0
 11
40036.503389
 21
24016.040147
 31
0.0
  0
LINE
  5
2205
100
AcDbEntity
  8
LJ
 62
     5
100
AcDbLine
 10
40246.987981
 20
24140.800904
 30
0.0
 11
40246.983828
 21
24187.453066
 31
0.0
  0
LINE
  5
2206
100
AcDbEntity
  8
LJ
 62
     5
100
AcDbLine
 10
40234.366904
 20
24045.384299
 30
0.0
 11
40224.379166
 21
24035.387045
 31
0.0
  0
ARC
  5
2207
100
AcDbEntity
  8
LJ
 62
     5
100
AcDbCircle
 10
40023.996801
 20
24090.035723
 30
0.0
 40
75.0
100
AcDbArc
 50
80.4019
 51
279.598
  0
ARC
  5
2208
100
AcDbEntity
  8
LJ
 62
     5
100
AcDbCircle
 10
40209.477639
 20
24187.453066
 30
0.0
 40
37.5
100
AcDbArc
 50
0.0
 51
180.0
  0
LINE
  5
2209
100
AcDbEntity
  8
LJ
 62
     5
100
AcDbLine
 10
39929.063654
 20
24155.007313
 30
0.0
 11
39929.072523
 21
24024.973741
 31
0.0
  0
LINE
  5
220A
100
AcDbEntity
  8
LJ
 62
     5
100
AcDbLine
 10
39929.11617
 20
24029.989525
 30
0.0
 11
40011.633736
 21
24016.021301
 31
0.0
  0
LINE
  5
220B
100
AcDbEntity
  8
LJ
 62
     5
100
AcDbLine
 10
39929.072523
 20
24024.973741
 30
0.0
 11
39897.125542
 21
24024.992556
 31
0.0
  0
LINE
  5
220C
100
AcDbEntity
  8
LJ
 62
     5
100
AcDbLine
 10
39929.063654
 20
24155.007313
 30
0.0
 11
39897.116672
 21
24155.026128
 31
0.0
  0
LINE
  5
220D
100
AcDbEntity
  8
LJ
 62
     5
100
AcDbLine
 10
39929.112058
 20
24150.030601
 30
0.0
 11
40011.529286
 21
24163.939248
 31
0.0
  0
LINE
  5
220E
100
AcDbEntity
  8
LJ
 62
     5
100
AcDbLine
 10
39897.116672
 20
24155.026128
 30
0.0
 11
39897.125542
 21
24024.992556
 31
0.0
  0
ARC
  5
220F
100
AcDbEntity
  8
LJ
 62
     5
100
AcDbCircle
 10
40024.127925
 20
24089.982745
 30
0.0
 40
74.9999
100
AcDbArc
 50
260.403
 51
99.5975
  0
LINE
  5
2210
100
AcDbEntity
  8
LJ
 62
     5
100
AcDbLine
 10
40624.375571
 20
24045.371834
 30
0.0
 11
40624.441215
 21
22734.597267
 31
0.0
  0
POINT
  5
2211
100
AcDbEntity
  8
LJ
 62
     5
100
AcDbPoint
 10
49024.035709
 20
23389.953268
 30
0.0
  0
LINE
  5
2212
100
AcDbEntity
  8
LJ
 62
     5
100
AcDbLine
 10
48099.724857
 20
22689.976115
 30
0.0
 11
48782.805396
 21
24089.969636
 31
0.0
  0
LINE
  5
2213
100
AcDbEntity
  8
LJ
 62
     5
100
AcDbLine
 10
49024.023432
 20
24186.602907
 30
0.0
 11
49024.048773
 21
22542.18996
 31
0.0
  0
LINE
  5
2214
100
AcDbEntity
  8
LJ
 62
     5
100
AcDbLine
 10
48810.049721
 20
22740.759157
 30
0.0
 11
48810.019988
 21
24039.164459
 31
0.0
  0
LINE
  5
2215
100
AcDbEntity
  8
LJ
 62
     5
100
AcDbLine
 10
48866.958406
 20
22740.79826
 30
0.0
 11
48867.020724
 21
24039.242635
 31
0.0
  0
LINE
  5
2216
100
AcDbEntity
  8
LJ
 62
     5
100
AcDbLine
 10
48099.797857
 20
24089.99972
 30
0.0
 11
48782.732396
 21
22689.946031
 31
0.0
  0
LINE
  5
2217
100
AcDbEntity
  8
LJ
 62
     5
100
AcDbLine
 10
49119.087202
 20
22750.04815
 30
0.0
 11
49036.608709
 21
22763.924324
 31
0.0
  0
LINE
  5
2218
100
AcDbEntity
  8
LJ
 62
     5
100
AcDbLine
 10
49119.091314
 20
22630.007074
 30
0.0
 11
49036.582035
 21
22616.059354
 31
0.0
  0
LINE
  5
2219
100
AcDbEntity
  8
LJ
 62
     5
100
AcDbLine
 10
49119.047667
 20
22624.991289
 30
0.0
 11
49150.994649
 21
22624.972474
 31
0.0
  0
LINE
  5
221A
100
AcDbEntity
  8
LJ
 62
     5
100
AcDbLine
 10
49119.038798
 20
22755.024862
 30
0.0
 11
49150.98578
 21
22755.006046
 31
0.0
  0
LINE
  5
221B
100
AcDbEntity
  8
LJ
 62
     5
100
AcDbLine
 10
49150.994649
 20
22624.972474
 30
0.0
 11
49150.98578
 21
22755.006046
 31
0.0
  0
LINE
  5
221C
100
AcDbEntity
  8
LJ
 62
     5
100
AcDbLine
 10
49119.047667
 20
22624.991289
 30
0.0
 11
49119.038798
 21
22755.024862
 31
0.0
  0
ARC
  5
221D
100
AcDbEntity
  8
LJ
 62
     5
100
AcDbCircle
 10
49023.983396
 20
22690.015857
 30
0.0
 40
75.0
100
AcDbArc
 50
80.4019
 51
279.598
  0
LINE
  5
221E
100
AcDbEntity
  8
LJ
 62
     5
100
AcDbLine
 10
48893.025298
 20
22639.207428
 30
0.0
 11
48890.74058
 21
22639.215347
 31
0.0
  0
LINE
  5
221F
100
AcDbEntity
  8
LJ
 62
     5
100
AcDbLine
 10
48896.981013
 20
22625.025668
 30
0.0
 11
48897.011217
 21
22754.96719
 31
0.0
  0
LINE
  5
2220
100
AcDbEntity
  8
LJ
 62
     5
100
AcDbLine
 10
48929.020046
 20
22625.045926
 30
0.0
 11
48928.958199
 21
22754.948374
 31
0.0
  0
LINE
  5
2221
100
AcDbEntity
  8
LJ
 62
     5
100
AcDbLine
 10
48929.006603
 20
22749.971663
 30
0.0
 11
49011.515882
 21
22763.919382
 31
0.0
  0
LINE
  5
2222
100
AcDbEntity
  8
LJ
 62
     5
100
AcDbLine
 10
48928.958199
 20
22754.948374
 30
0.0
 11
48897.011217
 21
22754.96719
 31
0.0
  0
LINE
  5
2223
100
AcDbEntity
  8
LJ
 62
     5
100
AcDbLine
 10
48928.971642
 20
22630.022637
 30
0.0
 11
49011.489208
 21
22616.054413
 31
0.0
  0
LINE
  5
2224
100
AcDbEntity
  8
LJ
 62
     5
100
AcDbLine
 10
48929.020046
 20
22625.045926
 30
0.0
 11
48896.981013
 21
22625.025668
 31
0.0
  0
ARC
  5
2225
100
AcDbEntity
  8
LJ
 62
     5
100
AcDbCircle
 10
49023.983396
 20
22690.015857
 30
0.0
 40
74.9999
100
AcDbArc
 50
260.403
 51
99.5975
  0
LINE
  5
2226
100
AcDbEntity
  8
LJ
 62
     5
100
AcDbLine
 10
49119.019747
 20
24155.009393
 30
0.0
 11
49151.05878
 21
24155.029651
 31
0.0
  0
LINE
  5
2227
100
AcDbEntity
  8
LJ
 62
     5
100
AcDbLine
 10
49151.067649
 20
24024.996079
 30
0.0
 11
49151.05878
 21
24155.029651
 31
0.0
  0
LINE
  5
2228
100
AcDbEntity
  8
LJ
 62
     5
100
AcDbLine
 10
49119.072263
 20
24029.991606
 30
0.0
 11
49036.562984
 21
24016.043886
 31
0.0
  0
ARC
  5
2229
100
AcDbEntity
  8
LJ
 62
     5
100
AcDbCircle
 10
49024.056397
 20
24090.039462
 30
0.0
 40
75.0
100
AcDbArc
 50
80.4019
 51
279.598
  0
LINE
  5
222A
100
AcDbEntity
  8
LJ
 62
     5
100
AcDbLine
 10
48929.031199
 20
24154.971979
 30
0.0
 11
48929.000995
 21
24025.030457
 31
0.0
  0
LINE
  5
222B
100
AcDbEntity
  8
LJ
 62
     5
100
AcDbLine
 10
48928.952591
 20
24030.007169
 30
0.0
 11
49011.470157
 21
24016.038945
 31
0.0
  0
LINE
  5
222C
100
AcDbEntity
  8
LJ
 62
     5
100
AcDbLine
 10
48929.000995
 20
24025.030457
 30
0.0
 11
48896.961963
 21
24025.0102
 31
0.0
  0
LINE
  5
222D
100
AcDbEntity
  8
LJ
 62
     5
100
AcDbLine
 10
48928.987552
 20
24149.956195
 30
0.0
 11
49011.496831
 21
24163.903914
 31
0.0
  0
LINE
  5
222E
100
AcDbEntity
  8
LJ
 62
     5
100
AcDbLine
 10
48896.992166
 20
24154.951722
 30
0.0
 11
48896.961963
 21
24025.0102
 31
0.0
  0
LINE
  5
222F
100
AcDbEntity
  8
LJ
 62
     5
100
AcDbLine
 10
48929.031199
 20
24154.971979
 30
0.0
 11
48896.992166
 21
24154.951722
 31
0.0
  0
ARC
  5
2230
100
AcDbEntity
  8
LJ
 62
     5
100
AcDbCircle
 10
49023.964346
 20
24090.000389
 30
0.0
 40
74.9999
100
AcDbArc
 50
260.403
 51
99.5975
  0
LINE
  5
2231
100
AcDbEntity
  8
LJ
 62
     5
100
AcDbLine
 10
49119.068151
 20
24150.032682
 30
0.0
 11
49036.589658
 21
24163.908856
 31
0.0
  0
LINE
  5
2232
100
AcDbEntity
  8
LJ
 62
     5
100
AcDbLine
 10
49119.028617
 20
24024.975821
 30
0.0
 11
49151.067649
 21
24024.996079
 31
0.0
  0
LINE
  5
2233
100
AcDbEntity
  8
LJ
 62
     5
100
AcDbLine
 10
49119.028617
 20
24024.975821
 30
0.0
 11
49119.019747
 21
24155.009393
 31
0.0
  0
POINT
  5
2234
100
AcDbEntity
  8
LJ
 62
     5
100
AcDbPoint
 10
30194.805606
 20
23389.845742
 30
0.0
  0
POINT
  5
2235
100
AcDbEntity
  8
LJ
 62
     5
100
AcDbPoint
 10
36194.661993
 20
23389.953306
 30
0.0
  0
LINE
  5
2236
100
AcDbEntity
  8
LJ
 62
     5
100
AcDbLine
 10
30294.802627
 20
23978.045574
 30
0.0
 11
36067.80439
 21
24128.013209
 31
0.0
  0
LINE
  5
2237
100
AcDbEntity
  8
LJ
 62
     5
100
AcDbLine
 10
30770.914356
 20
23914.141266
 30
0.0
 11
36067.809592
 21
24051.750168
 31
0.0
  0
LINE
  5
2238
100
AcDbEntity
  8
LJ
 62
     5
100
AcDbLine
 10
30194.772454
 20
23389.845741
 30
0.0
 11
36194.803794
 21
23389.953309
 31
0.0
  0
LINE
  5
2239
100
AcDbEntity
  8
LJ
 62
     5
100
AcDbLine
 10
30294.779246
 20
22801.726668
 30
0.0
 11
36067.736588
 21
22651.78022
 31
0.0
  0
LINE
  5
223A
100
AcDbEntity
  8
LJ
 62
     5
100
AcDbLine
 10
30770.87813
 20
22865.679489
 30
0.0
 11
36067.731386
 21
22728.043587
 31
0.0
  0
LINE
  5
223B
100
AcDbEntity
  8
LJ
 62
     5
100
AcDbLine
 10
31116.494284
 20
23961.211996
 30
0.0
 11
31773.133756
 21
22801.489139
 31
0.0
  0
LINE
  5
223C
100
AcDbEntity
  8
LJ
 62
     5
100
AcDbLine
 10
31116.459868
 20
22818.563542
 30
0.0
 11
31773.233979
 21
23978.277243
 31
0.0
  0
LINE
  5
223D
100
AcDbEntity
  8
LJ
 62
     5
100
AcDbLine
 10
30380.375418
 20
22867.111784
 30
0.0
 11
30770.913336
 21
22856.894914
 31
0.0
  0
LINE
  5
223E
100
AcDbEntity
  8
LJ
 62
     5
100
AcDbLine
 10
30381.176562
 20
23912.747805
 30
0.0
 11
30770.918224
 21
23922.833791
 31
0.0
  0
LINE
  5
223F
100
AcDbEntity
  8
LJ
 62
     5
100
AcDbLine
 10
30107.967653
 20
23939.851165
 30
0.0
 11
30294.778787
 21
23939.952116
 31
0.0
  0
ARC
  5
2240
100
AcDbEntity
  8
LJ
 62
     5
100
AcDbCircle
 10
30194.761776
 20
23939.865468
 30
0.0
 40
65.0
100
AcDbArc
 50
72.9624
 51
287.038
  0
LINE
  5
2241
100
AcDbEntity
  8
LJ
 62
     5
100
AcDbLine
 10
30119.784063
 20
23984.953631
 30
0.0
 11
30175.740905
 21
24002.079104
 31
0.0
  0
LINE
  5
2242
100
AcDbEntity
  8
LJ
 62
     5
100
AcDbLine
 10
30119.773903
 20
23894.890043
 30
0.0
 11
30175.704011
 21
23877.783815
 31
0.0
  0
ARC
  5
2243
100
AcDbEntity
  8
LJ
 62
     5
100
AcDbCircle
 10
30194.761776
 20
23939.865468
 30
0.0
 40
64.9999
100
AcDbArc
 50
252.962
 51
107.0375
  0
LINE
  5
2244
100
AcDbEntity
  8
LJ
 62
     5
100
AcDbLine
 10
30106.965188
 20
22839.920306
 30
0.0
 11
30294.800142
 21
22839.912662
 31
0.0
  0
ARC
  5
2245
100
AcDbEntity
  8
LJ
 62
     5
100
AcDbCircle
 10
30194.744058
 20
22839.918065
 30
0.0
 40
65.0
100
AcDbArc
 50
72.9624
 51
287.038
  0
LINE
  5
2246
100
AcDbEntity
  8
LJ
 62
     5
100
AcDbLine
 10
30119.756184
 20
22794.94264
 30
0.0
 11
30175.725365
 21
22777.744362
 31
0.0
  0
LINE
  5
2247
100
AcDbEntity
  8
LJ
 62
     5
100
AcDbLine
 10
30119.713367
 20
22884.875105
 30
0.0
 11
30175.76226
 21
22902.03965
 31
0.0
  0
ARC
  5
2248
100
AcDbEntity
  8
LJ
 62
     5
100
AcDbCircle
 10
30194.744058
 20
22839.918065
 30
0.0
 40
64.9999
100
AcDbArc
 50
252.962
 51
107.0375
  0
LINE
  5
2249
100
AcDbEntity
  8
LJ
 62
     5
100
AcDbLine
 10
30094.712591
 20
22884.909236
 30
0.0
 11
30119.805418
 21
22884.914178
 31
0.0
  0
LINE
  5
224A
100
AcDbEntity
  8
LJ
 62
     5
100
AcDbLine
 10
30094.794481
 20
22794.884721
 30
0.0
 11
30119.756184
 21
22794.94264
 31
0.0
  0
LINE
  5
224B
100
AcDbEntity
  8
LJ
 62
     5
100
AcDbLine
 10
30094.794481
 20
22794.884721
 30
0.0
 11
30094.712591
 21
22884.909236
 31
0.0
  0
LINE
  5
224C
100
AcDbEntity
  8
LJ
 62
     5
100
AcDbLine
 10
30094.730309
 20
23984.856639
 30
0.0
 11
30094.773126
 21
23894.924175
 31
0.0
  0
LINE
  5
224D
100
AcDbEntity
  8
LJ
 62
     5
100
AcDbLine
 10
30094.773126
 20
23894.924175
 30
0.0
 11
30119.773903
 21
23894.890043
 31
0.0
  0
LINE
  5
224E
100
AcDbEntity
  8
LJ
 62
     5
100
AcDbLine
 10
30094.730309
 20
23984.856639
 30
0.0
 11
30119.784063
 21
23984.953631
 31
0.0
  0
LINE
  5
224F
100
AcDbEntity
  8
LJ
 62
     5
100
AcDbLine
 10
30371.174919
 20
23902.527377
 30
0.0
 11
30371.173531
 21
22875.481687
 31
0.0
  0
LINE
  5
2250
100
AcDbEntity
  8
LJ
 62
     5
100
AcDbLine
 10
30194.824208
 20
24033.644869
 30
0.0
 11
30194.786015
 21
22711.853986
 31
0.0
  0
LINE
  5
2251
100
AcDbEntity
  8
LJ
 62
     5
100
AcDbLine
 10
30328.75002
 20
23902.661294
 30
0.0
 11
30328.753911
 21
22877.138749
 31
0.0
  0
LINE
  5
2252
100
AcDbEntity
  8
LJ
 62
     5
100
AcDbLine
 10
30294.821029
 20
22878.081727
 30
0.0
 11
30372.462237
 21
22876.028711
 31
0.0
  0
LINE
  5
2253
100
AcDbEntity
  8
LJ
 62
     5
100
AcDbLine
 10
30294.824759
 20
22884.898431
 30
0.0
 11
30269.731932
 21
22884.893489
 31
0.0
  0
LINE
  5
2254
100
AcDbEntity
  8
LJ
 62
     5
100
AcDbLine
 10
30269.823982
 20
22884.932562
 30
0.0
 11
30213.801824
 21
22901.999717
 31
0.0
  0
LINE
  5
2255
100
AcDbEntity
  8
LJ
 62
     5
100
AcDbLine
 10
30269.813822
 20
22794.868974
 30
0.0
 11
30213.85698
 21
22777.743502
 31
0.0
  0
LINE
  5
2256
100
AcDbEntity
  8
LJ
 62
     5
100
AcDbLine
 10
30294.775525
 20
22794.926893
 30
0.0
 11
30294.824759
 21
22884.898431
 31
0.0
  0
LINE
  5
2257
100
AcDbEntity
  8
LJ
 62
     5
100
AcDbLine
 10
30294.775525
 20
22794.926893
 30
0.0
 11
30269.813822
 21
22794.868974
 31
0.0
  0
LINE
  5
2258
100
AcDbEntity
  8
LJ
 62
     5
100
AcDbLine
 10
30371.158398
 20
22867.327561
 30
0.0
 11
30379.167497
 21
22867.142232
 31
0.0
  0
LINE
  5
2259
100
AcDbEntity
  8
LJ
 62
     5
100
AcDbLine
 10
30371.153641
 20
22877.320057
 30
0.0
 11
30381.176063
 21
22867.017094
 31
0.0
  0
LINE
  5
225A
100
AcDbEntity
  8
LJ
 62
     5
100
AcDbLine
 10
30371.182155
 20
22874.181716
 30
0.0
 11
30371.158398
 21
22867.327561
 31
0.0
  0
LINE
  5
225B
100
AcDbEntity
  8
LJ
 62
     5
100
AcDbLine
 10
30294.793244
 20
23894.874296
 30
0.0
 11
30269.792467
 21
23894.908428
 31
0.0
  0
LINE
  5
225C
100
AcDbEntity
  8
LJ
 62
     5
100
AcDbLine
 10
30294.803404
 20
23984.937884
 30
0.0
 11
30269.841701
 21
23984.879965
 31
0.0
  0
LINE
  5
225D
100
AcDbEntity
  8
LJ
 62
     5
100
AcDbLine
 10
30269.841701
 20
23984.879965
 30
0.0
 11
30213.780469
 21
24002.039171
 31
0.0
  0
LINE
  5
225E
100
AcDbEntity
  8
LJ
 62
     5
100
AcDbLine
 10
30294.793244
 20
23894.874296
 30
0.0
 11
30294.803404
 21
23984.937884
 31
0.0
  0
LINE
  5
225F
100
AcDbEntity
  8
LJ
 62
     5
100
AcDbLine
 10
30269.792467
 20
23894.908428
 30
0.0
 11
30213.835625
 21
23877.782956
 31
0.0
  0
LINE
  5
2260
100
AcDbEntity
  8
LJ
 62
     5
100
AcDbLine
 10
30371.174919
 20
23902.527377
 30
0.0
 11
30381.176562
 21
23912.747805
 31
0.0
  0
LINE
  5
2261
100
AcDbEntity
  8
LJ
 62
     5
100
AcDbLine
 10
30294.794013
 20
23901.689133
 30
0.0
 11
30372.413288
 21
23903.70485
 31
0.0
  0
LINE
  5
2262
100
AcDbEntity
  8
LJ
 62
     5
100
AcDbLine
 10
30770.918224
 20
23922.833791
 30
0.0
 11
30770.913336
 21
22856.894914
 31
0.0
  0
LINE
  5
2263
100
AcDbEntity
  8
LJ
 62
     5
100
AcDbLine
 10
36194.649718
 20
24186.515972
 30
0.0
 11
36194.675059
 21
22542.103025
 31
0.0
  0
LINE
  5
2264
100
AcDbEntity
  8
LJ
 62
     5
100
AcDbLine
 10
36099.729051
 20
22629.882725
 30
0.0
 11
36182.246617
 21
22615.9145
 31
0.0
  0
LINE
  5
2265
100
AcDbEntity
  8
LJ
 62
     5
100
AcDbLine
 10
36289.717599
 20
22629.920139
 30
0.0
 11
36207.208321
 21
22615.972419
 31
0.0
  0
ARC
  5
2266
100
AcDbEntity
  8
LJ
 62
     5
100
AcDbCircle
 10
36194.740806
 20
22689.875945
 30
0.0
 40
75.0
100
AcDbArc
 50
80.4019
 51
279.598
  0
ARC
  5
2267
100
AcDbEntity
  8
LJ
 62
     5
100
AcDbCircle
 10
36194.740806
 20
22689.875945
 30
0.0
 40
74.9999
100
AcDbArc
 50
260.403
 51
99.5975
  0
LINE
  5
2268
100
AcDbEntity
  8
LJ
 62
     5
100
AcDbLine
 10
35285.151882
 20
24069.548511
 30
0.0
 11
35936.904696
 21
22693.303852
 31
0.0
  0
LINE
  5
2269
100
AcDbEntity
  8
LJ
 62
     5
100
AcDbLine
 10
35285.154542
 20
22710.295536
 30
0.0
 11
35936.822815
 21
24086.52628
 31
0.0
  0
LINE
  5
226A
100
AcDbEntity
  8
LJ
 62
     5
100
AcDbLine
 10
35970.794048
 20
24049.235459
 30
0.0
 11
35970.727341
 21
22730.582917
 31
0.0
  0
LINE
  5
226B
100
AcDbEntity
  8
LJ
 62
     5
100
AcDbLine
 10
36027.747086
 20
24050.705657
 30
0.0
 11
36027.761871
 21
22729.045898
 31
0.0
  0
LINE
  5
226C
100
AcDbEntity
  8
LJ
 62
     5
100
AcDbLine
 10
36289.673953
 20
22624.904354
 30
0.0
 11
36321.712985
 21
22624.924612
 31
0.0
  0
LINE
  5
226D
100
AcDbEntity
  8
LJ
 62
     5
100
AcDbLine
 10
36289.665083
 20
22754.937926
 30
0.0
 11
36321.704116
 21
22754.958184
 31
0.0
  0
LINE
  5
226E
100
AcDbEntity
  8
LJ
 62
     5
100
AcDbLine
 10
36321.712985
 20
22624.924612
 30
0.0
 11
36321.704116
 21
22754.958184
 31
0.0
  0
LINE
  5
226F
100
AcDbEntity
  8
LJ
 62
     5
100
AcDbLine
 10
36289.673953
 20
22624.904354
 30
0.0
 11
36289.665083
 21
22754.937926
 31
0.0
  0
LINE
  5
2270
100
AcDbEntity
  8
LJ
 62
     5
100
AcDbLine
 10
36067.729553
 20
22754.919328
 30
0.0
 11
36067.738423
 21
22624.885755
 31
0.0
  0
LINE
  5
2271
100
AcDbEntity
  8
LJ
 62
     5
100
AcDbLine
 10
36099.777455
 20
22624.906013
 30
0.0
 11
36067.738423
 21
22624.885755
 31
0.0
  0
LINE
  5
2272
100
AcDbEntity
  8
LJ
 62
     5
100
AcDbLine
 10
36099.768585
 20
22754.939585
 30
0.0
 11
36067.729553
 21
22754.919328
 31
0.0
  0
LINE
  5
2273
100
AcDbEntity
  8
LJ
 62
     5
100
AcDbLine
 10
36099.724939
 20
22749.923801
 30
0.0
 11
36182.234218
 21
22763.87152
 31
0.0
  0
LINE
  5
2274
100
AcDbEntity
  8
LJ
 62
     5
100
AcDbLine
 10
36099.768585
 20
22754.939585
 30
0.0
 11
36099.777455
 21
22624.906013
 31
0.0
  0
LINE
  5
2275
100
AcDbEntity
  8
LJ
 62
     5
100
AcDbLine
 10
36289.752561
 20
22749.869165
 30
0.0
 11
36207.234994
 21
22763.837389
 31
0.0
  0
LINE
  5
2276
100
AcDbEntity
  8
LJ
 62
     5
100
AcDbLine
 10
36067.753524
 20
22689.856516
 30
0.0
 11
36302.05832
 21
22689.911027
 31
0.0
  0
LINE
  5
2277
100
AcDbEntity
  8
LJ
 62
     5
100
AcDbLine
 10
36289.73351
 20
24149.853696
 30
0.0
 11
36207.215944
 21
24163.821921
 31
0.0
  0
LINE
  5
2278
100
AcDbEntity
  8
LJ
 62
     5
100
AcDbLine
 10
36289.654903
 20
24024.888886
 30
0.0
 11
36321.693935
 21
24024.909144
 31
0.0
  0
LINE
  5
2279
100
AcDbEntity
  8
LJ
 62
     5
100
AcDbLine
 10
36289.646033
 20
24154.922458
 30
0.0
 11
36321.685065
 21
24154.942716
 31
0.0
  0
LINE
  5
227A
100
AcDbEntity
  8
LJ
 62
     5
100
AcDbLine
 10
36321.693935
 20
24024.909144
 30
0.0
 11
36321.685065
 21
24154.942716
 31
0.0
  0
LINE
  5
227B
100
AcDbEntity
  8
LJ
 62
     5
100
AcDbLine
 10
36289.654903
 20
24024.888886
 30
0.0
 11
36289.646033
 21
24154.922458
 31
0.0
  0
LINE
  5
227C
100
AcDbEntity
  8
LJ
 62
     5
100
AcDbLine
 10
36289.698549
 20
24029.904671
 30
0.0
 11
36207.18927
 21
24015.956951
 31
0.0
  0
ARC
  5
227D
100
AcDbEntity
  8
LJ
 62
     5
100
AcDbCircle
 10
36194.682682
 20
24089.952527
 30
0.0
 40
75.0
100
AcDbArc
 50
80.4019
 51
279.598
  0
LINE
  5
227E
100
AcDbEntity
  8
LJ
 62
     5
100
AcDbLine
 10
36067.826524
 20
24089.880121
 30
0.0
 11
36310.062271
 21
24089.933404
 31
0.0
  0
LINE
  5
227F
100
AcDbEntity
  8
LJ
 62
     5
100
AcDbLine
 10
36099.749535
 20
24154.924117
 30
0.0
 11
36099.758404
 21
24024.890545
 31
0.0
  0
LINE
  5
2280
100
AcDbEntity
  8
LJ
 62
     5
100
AcDbLine
 10
36099.802051
 20
24029.90633
 30
0.0
 11
36182.319617
 21
24015.938105
 31
0.0
  0
LINE
  5
2281
100
AcDbEntity
  8
LJ
 62
     5
100
AcDbLine
 10
36099.758404
 20
24024.890545
 30
0.0
 11
36067.811423
 21
24024.90936
 31
0.0
  0
LINE
  5
2282
100
AcDbEntity
  8
LJ
 62
     5
100
AcDbLine
 10
36099.749535
 20
24154.924117
 30
0.0
 11
36067.802553
 21
24154.942933
 31
0.0
  0
LINE
  5
2283
100
AcDbEntity
  8
LJ
 62
     5
100
AcDbLine
 10
36099.797939
 20
24149.947406
 30
0.0
 11
36182.215167
 21
24163.856052
 31
0.0
  0
LINE
  5
2284
100
AcDbEntity
  8
LJ
 62
     5
100
AcDbLine
 10
36067.802553
 20
24154.942933
 30
0.0
 11
36067.811423
 21
24024.90936
 31
0.0
  0
LINE
  5
2285
100
AcDbEntity
  8
LJ
 62
     5
100
AcDbLine
 10
36027.736343
 20
24062.759698
 30
0.0
 11
36027.747086
 21
24050.705657
 31
0.0
  0
LINE
  5
2286
100
AcDbEntity
  8
LJ
 62
     5
100
AcDbLine
 10
35957.564255
 20
24126.726314
 30
0.0
 11
35969.897056
 21
24184.432483
 31
0.0
  0
LINE
  5
2287
100
AcDbEntity
  8
LJ
 62
     5
100
AcDbLine
 10
36040.854474
 20
24127.317382
 30
0.0
 11
36028.591134
 21
24184.360353
 31
0.0
  0
LINE
  5
2288
100
AcDbEntity
  8
LJ
 62
     5
100
AcDbLine
 10
36032.30578
 20
24062.74386
 30
0.0
 11
36032.277449
 21
24050.78187
 31
0.0
  0
ARC
  5
2289
100
AcDbEntity
  8
LJ
 62
     5
100
AcDbCircle
 10
36194.813806
 20
24089.89955
 30
0.0
 40
74.9999
100
AcDbArc
 50
260.403
 51
99.5975
  0
ARC
  5
228A
100
AcDbEntity
  8
LJ
 62
     5
100
AcDbCircle
 10
35999.301124
 20
24178.119735
 30
0.0
 40
30.0
100
AcDbArc
 50
12.114
 51
167.886
  0
TEXT
  5
228B
100
AcDbEntity
  8
0
100
AcDbText
 10
9196.009274
 20
26523.865979
 30
0.0
 40
700.0
  1
B410101
  7
EXTFONT
100
AcDbText
  0
TEXT
  5
228C
100
AcDbEntity
  8
0
100
AcDbText
 10
20124.734992
 20
26523.865979
 30
0.0
 40
700.0
  1
B410102
  7
EXTFONT
100
AcDbText
  0
TEXT
  5
228D
100
AcDbEntity
  8
0
100
AcDbText
 10
30958.428321
 20
26523.865979
 30
0.0
 40
700.0
  1
B410103
  7
EXTFONT
100
AcDbText
  0
TEXT
  5
228E
100
AcDbEntity
  8
0
100
AcDbText
 10
41697.089262
 20
26523.865979
 30
0.0
 40
700.0
  1
B410104
  7
EXTFONT
100
AcDbText
  0
TEXT
  5
228F
100
AcDbEntity
  8
0
100
AcDbText
 10
54431.430592
 20
26523.865979
 30
0.0
 40
700.0
  1
B410105
  7
EXTFONT
100
AcDbText
  0
TEXT
  5
2290
100
AcDbEntity
  8
0
100
AcDbText
 10
9196.009274
 20
17312.061924
 30
0.0
 40
700.0
  1
B410106
  7
EXTFONT
100
AcDbText
  0
TEXT
  5
2291
100
AcDbEntity
  8
0
100
AcDbText
 10
20314.799769
 20
17312.061924
 30
0.0
 40
700.0
  1
B410107
  7
EXTFONT
100
AcDbText
  0
TEXT
  5
2292
100
AcDbEntity
  8
0
100
AcDbText
 10
37420.631433
 20
17312.061924
 30
0.0
 40
700.0
  1
B410108
  7
EXTFONT
100
AcDbText
  0
TEXT
  5
279A
100
AcDbEntity
  8
0
100
AcDbText
 10
14255.622852
 20
6101.030935
 30
0.0
 40
700.0
  1
B390112
  7
EXTFONT
100
AcDbText
  0
TEXT
  5
279B
100
AcDbEntity
  8
0
100
AcDbText
 10
7634.27532
 20
6101.030935
 30
0.0
 40
700.0
  1
B390111
  7
EXTFONT
100
AcDbText
  0
LINE
  5
279C
100
AcDbEntity
  8
HOOK
  6
CONTINUOUS
100
AcDbLine
 10
10273.602481
 20
2244.149652
 30
0.0
 11
10430.791492
 21
1976.003424
 31
0.0
  0
LINE
  5
279D
100
AcDbEntity
  8
HOOK
  6
CONTINUOUS
100
AcDbLine
 10
9739.03269
 20
1976.003849
 30
0.0
 11
9896.220342
 21
2244.14776
 31
0.0
  0
CIRCLE
  5
279E
100
AcDbEntity
  8
HOOK
  6
CENTER
100
AcDbCircle
 10
10084.908205
 20
1933.975303
 30
0.0
 40
287.499756
  0
LINE
  5
279F
100
AcDbEntity
  8
HOOK
  6
CENTER
100
AcDbLine
 10
10084.908205
 20
2422.117637
 30
0.0
 11
10084.908205
 21
284.902549
 31
0.0
  0
POINT
  5
27A0
100
AcDbEntity
  8
HOOK
100
AcDbPoint
 10
10084.908205
 20
1933.975303
 30
0.0
  0
LINE
  5
27A1
100
AcDbEntity
  8
HOOK
  6
PHANTOM
100
AcDbLine
 10
9526.09424
 20
1933.975303
 30
0.0
 11
10530.743655
 21
1933.975303
 31
0.0
  0
ARC
  5
27A2
100
AcDbEntity
  8
HOOK
  6
CONTINUOUS
100
AcDbCircle
 10
10102.320315
 20
549.592978
 30
0.0
 40
439.998779
100
AcDbArc
 50
143.950007
 51
181.516758
  0
ARC
  5
27A3
100
AcDbEntity
  8
HOOK
  6
CONTINUOUS
100
AcDbCircle
 10
9852.410647
 20
542.976767
 30
0.0
 40
189.99939
100
AcDbArc
 50
179.999909
 51
269.999946
  0
LINE
  5
27A4
100
AcDbEntity
  8
HOOK
  6
CONTINUOUS
100
AcDbLine
 10
10177.406985
 20
682.974326
 30
0.0
 11
10177.406985
 21
993.975303
 31
0.0
  0
LINE
  5
27A5
100
AcDbEntity
  8
HOOK
  6
CONTINUOUS
100
AcDbLine
 10
9992.408205
 20
993.975303
 30
0.0
 11
9992.408205
 21
682.974326
 31
0.0
  0
ARC
  5
27A6
100
AcDbEntity
  8
HOOK
  6
CONTINUOUS
100
AcDbCircle
 10
10067.494875
 20
549.592978
 30
0.0
 40
439.998779
100
AcDbArc
 50
358.483224
 51
36.049991
  0
ARC
  5
27A7
100
AcDbEntity
  8
HOOK
  6
CONTINUOUS
100
AcDbCircle
 10
10317.405764
 20
542.976767
 30
0.0
 40
189.99939
100
AcDbArc
 50
270.000073
 51
0.000073
  0
LINE
  5
27A8
100
AcDbEntity
  8
HOOK
  6
CENTER
100
AcDbLine
 10
10277.405764
 20
506.077353
 30
0.0
 11
10277.405764
 21
810.698935
 31
0.0
  0
ARC
  5
27A9
100
AcDbEntity
  8
HOOK
  6
CONTINUOUS
100
AcDbCircle
 10
10394.905031
 20
787.974326
 30
0.0
 40
34.999924
100
AcDbArc
 50
35.961199
 51
190.733688
  0
ARC
  5
27AA
100
AcDbEntity
  8
HOOK
  6
CONTINUOUS
100
AcDbCircle
 10
10277.405764
 20
682.974326
 30
0.0
 40
99.999741
100
AcDbArc
 50
179.999964
 51
10.923586
  0
LINE
  5
27AB
100
AcDbEntity
  8
HOOK
  6
CONTINUOUS
100
AcDbLine
 10
10360.519198
 20
781.46033
 30
0.0
 11
10375.656671
 21
701.605561
 31
0.0
  0
LINE
  5
27AC
100
AcDbEntity
  8
HOOK
  6
CENTER
100
AcDbLine
 10
9892.411379
 20
810.698935
 30
0.0
 11
9892.411379
 21
506.077353
 31
0.0
  0
ARC
  5
27AD
100
AcDbEntity
  8
HOOK
  6
CONTINUOUS
100
AcDbCircle
 10
9774.911379
 20
787.974326
 30
0.0
 40
34.999924
100
AcDbArc
 50
349.266242
 51
144.038799
  0
LINE
  5
27AE
100
AcDbEntity
  8
HOOK
  6
CONTINUOUS
100
AcDbLine
 10
9794.168202
 20
701.603221
 30
0.0
 11
9809.306584
 21
781.462787
 31
0.0
  0
LINE
  5
27AF
100
AcDbEntity
  8
HOOK
  6
CONTINUOUS
100
AcDbLine
 10
9852.410647
 20
352.979209
 30
0.0
 11
10317.405764
 21
352.979209
 31
0.0
  0
ARC
  5
27B0
100
AcDbEntity
  8
HOOK
  6
CONTINUOUS
100
AcDbCircle
 10
9892.410647
 20
682.974326
 30
0.0
 40
99.999741
100
AcDbArc
 50
169.076306
 51
0.0
  0
LINE
  5
27B1
100
AcDbEntity
  8
HOOK
  6
CENTER
100
AcDbLine
 10
9751.792971
 20
682.974326
 30
0.0
 11
10418.12134
 21
682.974326
 31
0.0
  0
TEXT
  5
27B2
100
AcDbEntity
  8
HOOK
100
AcDbText
 10
9853.369973
 20
438.487425
 30
0.0
 40
50.0
  1
120t
100
AcDbText
  0
ARC
  5
27B3
100
AcDbEntity
  8
HOOK
  6
CONTINUOUS
100
AcDbCircle
 10
10404.908205
 20
1960.830771
 30
0.0
 40
29.999969
100
AcDbArc
 50
359.99969
 51
30.378895
  0
ARC
  5
27B4
100
AcDbEntity
  8
HOOK
  6
CONTINUOUS
100
AcDbCircle
 10
9764.908938
 20
1960.830771
 30
0.0
 40
29.999969
100
AcDbArc
 50
149.621086
 51
180.000292
  0
LINE
  5
27B5
100
AcDbEntity
  8
HOOK
100
AcDbLine
 10
10332.860667
 20
1043.344573
 30
0.0
 11
10427.683416
 21
1304.107133
 31
0.0
  0
ARC
  5
27B6
100
AcDbEntity
  8
HOOK
100
AcDbCircle
 10
10262.37616
 20
1068.975303
 30
0.0
 40
75.0
100
AcDbArc
 50
270.0
 51
340.016893
  0
ARC
  5
27B7
100
AcDbEntity
  8
HOOK
100
AcDbCircle
 10
10314.908205
 20
1345.1163
 30
0.0
 40
120.0
100
AcDbArc
 50
340.016893
 51
0.0
  0
LINE
  5
27B8
100
AcDbEntity
  8
HOOK
100
AcDbLine
 10
9836.955743
 20
1043.344573
 30
0.0
 11
9742.133727
 21
1304.105117
 31
0.0
  0
ARC
  5
27B9
100
AcDbEntity
  8
HOOK
100
AcDbCircle
 10
9854.908938
 20
1345.114284
 30
0.0
 40
120.0
100
AcDbArc
 50
180.0
 51
199.983107
  0
ARC
  5
27BA
100
AcDbEntity
  8
HOOK
100
AcDbCircle
 10
9907.44025
 20
1068.975303
 30
0.0
 40
75.0
100
AcDbArc
 50
199.983107
 51
270.0
  0
CIRCLE
  5
27BB
100
AcDbEntity
  8
HOOK
  6
CONTINUOUS
100
AcDbCircle
 10
10084.908205
 20
1213.977744
 30
0.0
 40
114.999969
  0
LINE
  5
27BC
100
AcDbEntity
  8
HOOK
  6
CONTINUOUS
100
AcDbLine
 10
9907.44025
 20
993.975303
 30
0.0
 11
10262.37616
 21
993.975303
 31
0.0
  0
LINE
  5
27BD
100
AcDbEntity
  8
HOOK
  6
CONTINUOUS
100
AcDbLine
 10
9734.908938
 20
1960.830771
 30
0.0
 11
9734.908938
 21
1345.114284
 31
0.0
  0
LINE
  5
27BE
100
AcDbEntity
  8
HOOK
  6
CONTINUOUS
100
AcDbLine
 10
10434.908205
 20
1345.1163
 30
0.0
 11
10434.908205
 21
1960.830771
 31
0.0
  0
ARC
  5
27BF
100
AcDbEntity
  8
HOOK
  6
CONTINUOUS
100
AcDbCircle
 10
10247.719485
 20
2228.972861
 30
0.0
 40
29.999969
100
AcDbArc
 50
30.379387
 51
90.000365
  0
ARC
  5
27C0
100
AcDbEntity
  8
HOOK
  6
CONTINUOUS
100
AcDbCircle
 10
9922.096926
 20
2228.972861
 30
0.0
 40
29.999969
100
AcDbArc
 50
89.9996
 51
149.620594
  0
LINE
  5
27C1
100
AcDbEntity
  8
HOOK
  6
CONTINUOUS
100
AcDbLine
 10
9922.096926
 20
2258.972861
 30
0.0
 11
10247.719485
 21
2258.972861
 31
0.0
  0
POINT
  5
27C2
100
AcDbEntity
  8
HOOK
100
AcDbPoint
 10
17259.182903
 20
1823.076182
 30
0.0
  0
ARC
  5
27C3
100
AcDbEntity
  8
HOOK
100
AcDbCircle
 10
17088.482903
 20
2114.376182
 30
0.0
 40
29.6296
100
AcDbArc
 50
90.0001
 51
149.349
  0
ARC
  5
27C4
100
AcDbEntity
  8
HOOK
100
AcDbCircle
 10
17429.982903
 20
2114.376182
 30
0.0
 40
29.6296
100
AcDbArc
 50
30.6506
 51
89.9999
  0
LINE
  5
27C5
100
AcDbEntity
  8
HOOK
100
AcDbLine
 10
17259.182903
 20
2176.276182
 30
0.0
 11
17259.182903
 21
506.376182
 31
0.0
  0
LINE
  5
27C6
100
AcDbEntity
  8
HOOK
100
AcDbLine
 10
17328.382903
 20
998.376182
 30
0.0
 11
17328.382903
 21
762.376182
 31
0.0
  0
LINE
  5
27C7
100
AcDbEntity
  8
HOOK
100
AcDbLine
 10
17190.082903
 20
762.376182
 30
0.0
 11
17190.082903
 21
998.376182
 31
0.0
  0
ARC
  5
27C8
100
AcDbEntity
  8
HOOK
100
AcDbCircle
 10
17115.982903
 20
762.376182
 30
0.0
 40
74.074
100
AcDbArc
 50
168.707
 51
360.0
  0
LINE
  5
27C9
100
AcDbEntity
  8
HOOK
100
AcDbLine
 10
17096.282903
 20
520.376182
 30
0.0
 11
17422.182903
 21
520.376182
 31
0.0
  0
ARC
  5
27CA
100
AcDbEntity
  8
HOOK
100
AcDbCircle
 10
17096.282903
 20
663.576182
 30
0.0
 40
143.21
100
AcDbArc
 50
161.627
 51
270.0
  0
ARC
  5
27CB
100
AcDbEntity
  8
HOOK
100
AcDbCircle
 10
17032.082903
 20
846.276182
 30
0.0
 40
24.6913
100
AcDbArc
 50
348.707
 51
161.627
  0
LINE
  5
27CC
100
AcDbEntity
  8
HOOK
100
AcDbLine
 10
16960.382903
 20
708.676182
 30
0.0
 11
17008.582903
 21
854.076182
 31
0.0
  0
LINE
  5
27CD
100
AcDbEntity
  8
HOOK
100
AcDbLine
 10
17043.382903
 20
776.876182
 30
0.0
 11
17056.282903
 21
841.476182
 31
0.0
  0
LINE
  5
27CE
100
AcDbEntity
  8
HOOK
100
AcDbLine
 10
17056.082903
 20
841.776182
 30
0.0
 11
17061.382903
 21
839.176182
 31
0.0
  0
TEXT
  5
27CF
100
AcDbEntity
  8
HOOK
100
AcDbText
 10
17325.536412
 20
563.819924
 30
0.0
 40
50.0
  1
80t
  7
EXTFONT
100
AcDbText
  0
ARC
  5
27D0
100
AcDbEntity
  8
HOOK
100
AcDbCircle
 10
17422.182903
 20
663.576182
 30
0.0
 40
143.21
100
AcDbArc
 50
270.0
 51
18.3734
  0
ARC
  5
27D1
100
AcDbEntity
  8
HOOK
100
AcDbCircle
 10
17486.382903
 20
846.276182
 30
0.0
 40
24.6913
100
AcDbArc
 50
18.3734
 51
191.293
  0
ARC
  5
27D2
100
AcDbEntity
  8
HOOK
100
AcDbCircle
 10
17402.382903
 20
762.376182
 30
0.0
 40
74.074
100
AcDbArc
 50
180.0
 51
11.2933
  0
LINE
  5
27D3
100
AcDbEntity
  8
HOOK
100
AcDbLine
 10
17457.082903
 20
839.176182
 30
0.0
 11
17462.382903
 21
841.776182
 31
0.0
  0
LINE
  5
27D4
100
AcDbEntity
  8
HOOK
100
AcDbLine
 10
17509.782903
 20
854.076182
 30
0.0
 11
17558.082903
 21
708.676182
 31
0.0
  0
LINE
  5
27D5
100
AcDbEntity
  8
HOOK
100
AcDbLine
 10
17462.182903
 20
841.476182
 30
0.0
 11
17475.082903
 21
776.876182
 31
0.0
  0
CIRCLE
  5
27D6
100
AcDbEntity
  8
HOOK
100
AcDbCircle
 10
17259.182903
 20
1823.076182
 30
0.0
 40
283.951
  0
ARC
  5
27D7
100
AcDbEntity
  8
HOOK
100
AcDbCircle
 10
17169.182903
 20
1097.176182
 30
0.0
 40
98.7654
100
AcDbArc
 50
193.496
 51
270.0
  0
CIRCLE
  5
27D8
100
AcDbEntity
  8
HOOK
100
AcDbCircle
 10
17259.182903
 20
1823.076182
 30
0.0
 40
283.95
  0
LINE
  5
27D9
100
AcDbEntity
  8
HOOK
100
AcDbLine
 10
17088.482903
 20
2144.076182
 30
0.0
 11
17429.982903
 21
2144.076182
 31
0.0
  0
LINE
  5
27DA
100
AcDbEntity
  8
HOOK
100
AcDbLine
 10
16882.282903
 20
1823.076182
 30
0.0
 11
17634.182903
 21
1823.076182
 31
0.0
  0
ARC
  5
27DB
100
AcDbEntity
  8
HOOK
100
AcDbCircle
 10
16933.282903
 20
1871.976182
 30
0.0
 40
19.7531
100
AcDbArc
 50
149.349
 51
180.0
  0
ARC
  5
27DC
100
AcDbEntity
  8
HOOK
100
AcDbCircle
 10
16933.282903
 20
1741.476182
 30
0.0
 40
19.7531
100
AcDbArc
 50
180.0
 51
193.496
  0
LINE
  5
27DD
100
AcDbEntity
  8
HOOK
100
AcDbLine
 10
16916.282903
 20
1882.076182
 30
0.0
 11
17062.982903
 21
2129.576182
 31
0.0
  0
LINE
  5
27DE
100
AcDbEntity
  8
HOOK
100
AcDbLine
 10
16913.482903
 20
1741.476182
 30
0.0
 11
16913.482903
 21
1871.976182
 31
0.0
  0
LINE
  5
27DF
100
AcDbEntity
  8
HOOK
100
AcDbLine
 10
17073.182903
 20
1074.076182
 30
0.0
 11
16914.082903
 21
1736.876182
 31
0.0
  0
ARC
  5
27E0
100
AcDbEntity
  8
HOOK
100
AcDbCircle
 10
17349.282903
 20
1097.176182
 30
0.0
 40
98.7654
100
AcDbArc
 50
270.0
 51
346.504
  0
ARC
  5
27E1
100
AcDbEntity
  8
HOOK
100
AcDbCircle
 10
17585.182903
 20
1871.976182
 30
0.0
 40
19.7531
100
AcDbArc
 50
360.0
 51
30.6507
  0
ARC
  5
27E2
100
AcDbEntity
  8
HOOK
100
AcDbCircle
 10
17585.182903
 20
1741.476182
 30
0.0
 40
19.7531
100
AcDbArc
 50
346.504
 51
360.0
  0
CIRCLE
  5
27E3
100
AcDbEntity
  8
HOOK
100
AcDbCircle
 10
17259.182903
 20
1171.276182
 30
0.0
 40
81.4815
  0
LINE
  5
27E4
100
AcDbEntity
  8
HOOK
100
AcDbLine
 10
17349.282903
 20
998.376182
 30
0.0
 11
17169.182903
 21
998.376182
 31
0.0
  0
LINE
  5
27E5
100
AcDbEntity
  8
HOOK
100
AcDbLine
 10
17455.482903
 20
2129.576182
 30
0.0
 11
17602.082903
 21
1882.076182
 31
0.0
  0
LINE
  5
27E6
100
AcDbEntity
  8
HOOK
100
AcDbLine
 10
17445.282903
 20
1074.076182
 30
0.0
 11
17604.382903
 21
1736.876182
 31
0.0
  0
LINE
  5
27E7
100
AcDbEntity
  8
HOOK
100
AcDbLine
 10
17604.882903
 20
1871.976182
 30
0.0
 11
17604.882903
 21
1741.476182
 31
0.0
  0
LINE
  5
27E8
100
AcDbEntity
  8
HOOK
100
AcDbLine
 10
17190.082903
 20
999.176182
 30
0.0
 11
17188.282903
 21
997.876182
 31
0.0
  0
POINT
  5
27E9
100
AcDbEntity
  8
HOOK
100
AcDbPoint
 10
24138.106932
 20
1874.42433
 30
0.0
  0
CIRCLE
  5
27EA
100
AcDbEntity
  8
HOOK
  6
CENTER
100
AcDbCircle
 10
24138.106932
 20
1874.42433
 30
0.0
 40
287.5
  0
ARC
  5
27EB
100
AcDbEntity
  8
HOOK
100
AcDbCircle
 10
23788.107932
 20
915.92133
 30
0.0
 40
299.999
100
AcDbArc
 50
18.9251
 51
41.9998
  0
ARC
  5
27EC
100
AcDbEntity
  8
HOOK
100
AcDbCircle
 10
24157.106932
 20
1015.92333
 30
0.0
 40
176.0
100
AcDbArc
 50
183.652
 51
270.0
  0
LINE
  5
27ED
100
AcDbEntity
  8
HOOK
  6
CENTER
100
AcDbLine
 10
24038.106932
 20
1035.92333
 30
0.0
 11
24238.106932
 21
1035.92333
 31
0.0
  0
LINE
  5
27EE
100
AcDbEntity
  8
HOOK
100
AcDbLine
 10
24049.924932
 20
1236.39433
 30
0.0
 11
23791.084932
 21
1773.24433
 31
0.0
  0
LINE
  5
27EF
100
AcDbEntity
  8
HOOK
100
AcDbLine
 10
23957.661932
 20
2199.42433
 30
0.0
 11
24318.554932
 21
2199.42433
 31
0.0
  0
LINE
  5
27F0
100
AcDbEntity
  8
HOOK
  6
CENTER
100
AcDbLine
 10
23749.943932
 20
1874.42433
 30
0.0
 11
24526.004932
 21
1874.42433
 31
0.0
  0
LINE
  5
27F1
100
AcDbEntity
  8
HOOK
100
AcDbLine
 10
23790.660932
 20
1865.20433
 30
0.0
 11
23930.214932
 21
2181.53433
 31
0.0
  0
ARC
  5
27F2
100
AcDbEntity
  8
HOOK
100
AcDbCircle
 10
23682.073932
 20
985.60833
 30
0.0
 40
299.999
100
AcDbArc
 50
3.65156
 51
20.0247
  0
ARC
  5
27F3
100
AcDbEntity
  8
HOOK
100
AcDbCircle
 10
23990.243932
 20
1097.92333
 30
0.0
 40
28.0
100
AcDbArc
 50
41.9998
 51
200.025
  0
ARC
  5
27F4
100
AcDbEntity
  8
HOOK
100
AcDbCircle
 10
23818.106932
 20
1786.27433
 30
0.0
 40
30.0
100
AcDbArc
 50
180.0
 51
205.741
  0
ARC
  5
27F5
100
AcDbEntity
  8
HOOK
100
AcDbCircle
 10
23818.106932
 20
1853.09433
 30
0.0
 40
30.0
100
AcDbArc
 50
156.194
 51
180.0
  0
LINE
  5
27F6
100
AcDbEntity
  8
HOOK
100
AcDbLine
 10
23788.106932
 20
1853.09433
 30
0.0
 11
23788.106932
 21
1786.27433
 31
0.0
  0
ARC
  5
27F7
100
AcDbEntity
  8
HOOK
100
AcDbCircle
 10
23957.661932
 20
2169.42433
 30
0.0
 40
30.0
100
AcDbArc
 50
90.0
 51
156.194
  0
LINE
  5
27F8
100
AcDbEntity
  8
HOOK
  6
CENTER
100
AcDbLine
 10
24138.106932
 20
2224.66433
 30
0.0
 11
24138.106932
 21
918.04033
 31
0.0
  0
LINE
  5
27F9
100
AcDbEntity
  8
HOOK
100
AcDbLine
 10
24346.004932
 20
2181.53433
 30
0.0
 11
24485.554932
 21
1865.20433
 31
0.0
  0
ARC
  5
27FA
100
AcDbEntity
  8
HOOK
100
AcDbCircle
 10
24157.106932
 20
1030.92333
 30
0.0
 40
191.0
100
AcDbArc
 50
270.0
 51
67.6805
  0
TEXT
  5
27FB
100
AcDbEntity
  8
HOOK
100
AcDbText
 10
24175.72365
 20
909.606456
 30
0.0
 40
30.0
  1
25t
100
AcDbText
  0
ARC
  5
27FC
100
AcDbEntity
  8
HOOK
100
AcDbCircle
 10
24256.606932
 20
1273.29433
 30
0.0
 40
70.9999
100
AcDbArc
 50
213.951
 51
247.681
  0
ARC
  5
27FD
100
AcDbEntity
  8
HOOK
100
AcDbCircle
 10
24078.873932
 20
1198.53033
 30
0.0
 40
22.0
100
AcDbArc
 50
17.493
 51
59.9999
  0
ARC
  5
27FE
100
AcDbEntity
  8
HOOK
100
AcDbCircle
 10
24290.606932
 20
1265.26033
 30
0.0
 40
200.0
100
AcDbArc
 50
197.493
 51
225.0
  0
ARC
  5
27FF
100
AcDbEntity
  8
HOOK
100
AcDbCircle
 10
24138.106932
 20
1035.92333
 30
0.0
 40
69.9999
100
AcDbArc
 50
198.925
 51
45.0
  0
ARC
  5
2800
100
AcDbEntity
  8
HOOK
100
AcDbCircle
 10
24076.947932
 20
1249.42333
 30
0.0
 40
30.0
100
AcDbArc
 50
205.741
 51
270.0
  0
ARC
  5
2801
100
AcDbEntity
  8
HOOK
100
AcDbCircle
 10
24199.266932
 20
1249.42333
 30
0.0
 40
30.0
100
AcDbArc
 50
270.0
 51
334.259
  0
ARC
  5
2802
100
AcDbEntity
  8
HOOK
100
AcDbCircle
 10
24458.104932
 20
1786.27433
 30
0.0
 40
30.0
100
AcDbArc
 50
334.259
 51
0.0
  0
ARC
  5
2803
100
AcDbEntity
  8
HOOK
100
AcDbCircle
 10
24458.104932
 20
1853.09433
 30
0.0
 40
30.0
100
AcDbArc
 50
0.0
 51
23.8059
  0
LINE
  5
2804
100
AcDbEntity
  8
HOOK
  6
DASHED
100
AcDbLine
 10
24073.107932
 20
1227.26333
 30
0.0
 11
24089.873932
 21
1217.58333
 31
0.0
  0
LINE
  5
2805
100
AcDbEntity
  8
HOOK
100
AcDbLine
 10
24149.185932
 20
1123.83933
 30
0.0
 11
24187.604932
 21
1085.42033
 31
0.0
  0
LINE
  5
2806
100
AcDbEntity
  8
HOOK
100
AcDbLine
 10
24226.289932
 20
1236.39433
 30
0.0
 11
24485.134932
 21
1773.24433
 31
0.0
  0
LINE
  5
2807
100
AcDbEntity
  8
HOOK
100
AcDbLine
 10
24076.947932
 20
1219.42333
 30
0.0
 11
24199.266932
 21
1219.42333
 31
0.0
  0
LINE
  5
2808
100
AcDbEntity
  8
HOOK
  6
CENTER
100
AcDbLine
 10
24051.540932
 20
1329.42333
 30
0.0
 11
24237.038932
 21
1329.42333
 31
0.0
  0
LINE
  5
2809
100
AcDbEntity
  8
HOOK
100
AcDbLine
 10
24488.104932
 20
1853.09433
 30
0.0
 11
24488.104932
 21
1786.27433
 31
0.0
  0
ARC
  5
280A
100
AcDbEntity
  8
HOOK
100
AcDbCircle
 10
24318.554932
 20
2169.42433
 30
0.0
 40
30.0
100
AcDbArc
 50
23.8059
 51
89.9999
  0
TEXT
  5
280B
100
AcDbEntity
  8
0
100
AcDbText
 10
21094.150524
 20
6041.107785
 30
0.0
 40
700.0
  1
B290119
100
AcDbText
  0
TEXT
  5
281D
100
AcDbEntity
  8
0
100
AcDbText
 10
51961.169755
 20
3284.858754
 30
0.0
 40
700.0
  1
AR400120B
  7
EXTFONT
100
AcDbText
  0
TEXT
  5
281E
100
AcDbEntity
  8
0
100
AcDbText
 10
51752.876829
 20
2244.073995
 30
0.0
 40
700.0
  1
AR-4000M
  7
EXTFONT
100
AcDbText
  0
TEXT
  5
281F
100
AcDbEntity
  8
0
100
AcDbText
 10
51822.307766
 20
1249.546375
 30
0.0
 40
700.0
  1
LJ
  7
EXTFONT
100
AcDbText
  0
LINE
  5
2820
100
AcDbEntity
  8
0
100
AcDbLine
 10
46064.031065
 20
1143.66101
 30
0.0
 11
61064.031065
 21
1143.66101
 31
0.0
  0
LINE
  5
2821
100
AcDbEntity
  8
0
100
AcDbLine
 10
46064.031065
 20
2143.66101
 30
0.0
 11
61064.031065
 21
2143.66101
 31
0.0
  0
LINE
  5
2822
100
AcDbEntity
  8
0
100
AcDbLine
 10
46064.031065
 20
3143.66101
 30
0.0
 11
61064.031065
 21
3143.66101
 31
0.0
  0
LINE
  5
2823
100
AcDbEntity
  8
0
100
AcDbLine
 10
46064.031065
 20
4143.66101
 30
0.0
 11
61064.031065
 21
4143.66101
 31
0.0
  0
TEXT
  5
2824
100
AcDbEntity
  8
0
100
AcDbText
 10
46314.116791
 20
2290.331134
 30
0.0
 40
800.0
  1
機　　　種
  7
EXTFONT
100
AcDbText
  0
TEXT
  5
2825
100
AcDbEntity
  8
0
100
AcDbText
 10
46337.260513
 20
3307.987289
 30
0.0
 40
800.0
  1
ファイル名
  7
EXTFONT
100
AcDbText
  0
TEXT
  5
2826
100
AcDbEntity
  8
0
100
AcDbText
 10
46290.973183
 20
1203.289305
 30
0.0
 40
800.0
  1
スペック
  7
EXTFONT
100
AcDbText
  0
LINE
  5
2827
100
AcDbEntity
  8
0
100
AcDbLine
 10
46064.031065
 20
4143.66101
 30
0.0
 11
46064.031065
 21
1143.66101
 31
0.0
  0
LINE
  5
2828
100
AcDbEntity
  8
0
100
AcDbLine
 10
51590.871232
 20
4143.66101
 30
0.0
 11
51590.871232
 21
1143.66101
 31
0.0
  0
LINE
  5
2829
100
AcDbEntity
  8
0
100
AcDbLine
 10
61064.031065
 20
4143.66101
 30
0.0
 11
61064.031065
 21
1143.66101
 31
0.0
  0
LINE
  5
29B6
100
AcDbEntity
  8
LJ
 62
     5
100
AcDbLine
 10
51844.55984
 20
13197.395846
 30
0.0
 11
57549.031438
 21
13197.411734
 31
0.0
  0
CIRCLE
  5
29B7
100
AcDbEntity
  8
LJ
 62
     5
100
AcDbCircle
 10
52356.513911
 20
12947.463858
 30
0.0
 40
250.0
  0
LINE
  5
29B8
100
AcDbEntity
  8
LJ
 62
     5
100
AcDbLine
 10
52071.130766
 20
12947.455082
 30
0.0
 11
52652.559076
 21
12947.435679
 31
0.0
  0
LINE
  5
29B9
100
AcDbEntity
  8
LJ
 62
     5
100
AcDbLine
 10
52306.5882
 20
12647.402942
 30
0.0
 11
52556.570798
 21
12647.376851
 31
0.0
  0
LINE
  5
29BA
100
AcDbEntity
  8
LJ
 62
     5
100
AcDbLine
 10
51969.955468
 20
13276.152601
 30
0.0
 11
52762.167053
 21
13725.733856
 31
0.0
  0
ARC
  5
29BB
100
AcDbEntity
  8
LJ
 62
     5
100
AcDbCircle
 10
52306.595907
 20
13047.404105
 30
0.0
 40
400.0
100
AcDbArc
 50
194.478
 51
270.0
  0
LINE
  5
29BC
100
AcDbEntity
  8
LJ
 62
     5
100
AcDbLine
 10
51919.273831
 20
12947.416808
 30
0.0
 11
51919.243078
 21
13188.575758
 31
0.0
  0
ARC
  5
29BD
100
AcDbEntity
  8
LJ
 62
     5
100
AcDbCircle
 10
52019.248824
 20
13189.200804
 30
0.0
 40
100.0
100
AcDbArc
 50
119.5719
 51
180.0
  0
LINE
  5
29BE
100
AcDbEntity
  8
LJ
 62
     5
100
AcDbLine
 10
57229.506785
 20
13846.356438
 30
0.0
 11
52456.107069
 21
13405.629228
 31
0.0
  0
LINE
  5
29BF
100
AcDbEntity
  8
LJ
 62
     5
100
AcDbLine
 10
57229.549196
 20
12446.395634
 30
0.0
 11
52606.648686
 21
12873.34291
 31
0.0
  0
LINE
  5
29C0
100
AcDbEntity
  8
LJ
 62
     5
100
AcDbLine
 10
57229.55237
 20
12548.391007
 30
0.0
 11
52456.123799
 21
12989.195247
 31
0.0
  0
LINE
  5
29C1
100
AcDbEntity
  8
LJ
 62
     5
100
AcDbLine
 10
57229.530515
 20
13948.445791
 30
0.0
 11
52953.121261
 21
13553.547267
 31
0.0
  0
LINE
  5
29C2
100
AcDbEntity
  8
LJ
 62
     5
100
AcDbLine
 10
52356.574437
 20
12654.280884
 30
0.0
 11
52356.525546
 21
13242.524276
 31
0.0
  0
LINE
  5
29C3
100
AcDbEntity
  8
LJ
 62
     5
100
AcDbLine
 10
53585.070513
 20
12885.036493
 30
0.0
 11
53585.056276
 21
13509.796303
 31
0.0
  0
LINE
  5
29C4
100
AcDbEntity
  8
LJ
 62
     5
100
AcDbLine
 10
53528.088255
 20
12890.289326
 30
0.0
 11
53528.050967
 21
13504.610292
 31
0.0
  0
LINE
  5
29C5
100
AcDbEntity
  8
LJ
 62
     5
100
AcDbLine
 10
54193.827049
 20
13617.091437
 30
0.0
 11
53606.499829
 21
12831.992885
 31
0.0
  0
LINE
  5
29C6
100
AcDbEntity
  8
LJ
 62
     5
100
AcDbLine
 10
54193.780327
 20
12777.749577
 30
0.0
 11
53606.551185
 21
13562.80931
 31
0.0
  0
ARC
  5
29C8
100
AcDbEntity
  8
LJ
 62
     5
100
AcDbCircle
 10
52556.507938
 20
12697.431382
 30
0.0
 40
50.0
100
AcDbArc
 50
270.0
 51
0.0
  0
LINE
  5
29CC
100
AcDbEntity
  8
LJ
 62
     5
100
AcDbLine
 10
52606.601542
 20
12697.402192
 30
0.0
 11
52606.648686
 21
12873.34291
 31
0.0
  0
LINE
  5
29CD
100
AcDbEntity
  8
LJ
 62
     5
100
AcDbLine
 10
52456.17279
 20
13207.907706
 30
0.0
 11
52456.123799
 21
12989.195247
 31
0.0
  0
ARC
  5
29CE
100
AcDbEntity
  8
LJ
 62
     5
100
AcDbCircle
 10
52806.579616
 20
13647.465253
 30
0.0
 40
89.9999
100
AcDbArc
 50
8.458
 51
119.0553
  0
LINE
  5
29CF
100
AcDbEntity
  8
LJ
 62
     5
100
AcDbLine
 10
52456.554498
 20
13295.30447
 30
0.0
 11
52456.627609
 21
13164.863623
 31
0.0
  0
LINE
  5
29D3
100
AcDbEntity
  8
LJ
 62
     5
100
AcDbLine
 10
52456.107069
 20
13405.629228
 30
0.0
 11
52456.099555
 21
13239.815615
 31
0.0
  0
ARC
  5
29D4
100
AcDbEntity
  8
LJ
 62
     5
100
AcDbCircle
 10
52953.184761
 20
13613.552551
 30
0.0
 40
50.0
100
AcDbArc
 50
190.236
 51
270.0
  0
LINE
  5
29D5
100
AcDbEntity
  8
LJ
 62
     5
100
AcDbLine
 10
52895.586112
 20
13660.694524
 30
0.0
 11
52903.617064
 21
13606.200453
 31
0.0
  0
LINE
  5
29D6
100
AcDbEntity
  8
LJ
 62
     5
100
AcDbLine
 10
52953.116498
 20
13563.550998
 30
0.0
 11
52953.121261
 21
13553.547267
 31
0.0
  0
LINE
  5
29D7
100
AcDbEntity
  8
LJ
 62
     5
100
AcDbLine
 10
57356.472971
 20
13993.997879
 30
0.0
 11
57356.459238
 21
12349.676983
 31
0.0
  0
LINE
  5
29D8
100
AcDbEntity
  8
LJ
 62
     5
100
AcDbLine
 10
57356.569226
 20
14029.34545
 30
0.0
 11
57356.517833
 21
12377.947225
 31
0.0
  0
LINE
  5
29D9
100
AcDbEntity
  8
LJ
 62
     5
100
AcDbLine
 10
57199.643805
 20
13843.669463
 30
0.0
 11
57199.641677
 21
12551.225619
 31
0.0
  0
LINE
  5
29DA
100
AcDbEntity
  8
LJ
 62
     5
100
AcDbLine
 10
57142.677569
 20
13838.391401
 30
0.0
 11
57142.659419
 21
12556.478452
 31
0.0
  0
LINE
  5
29DB
100
AcDbEntity
  8
LJ
 62
     5
100
AcDbLine
 10
56550.850194
 20
13834.757115
 30
0.0
 11
57112.856025
 21
12508.195041
 31
0.0
  0
LINE
  5
29DC
100
AcDbEntity
  8
LJ
 62
     5
100
AcDbLine
 10
56550.791559
 20
12560.105595
 30
0.0
 11
57112.841211
 21
13886.671436
 31
0.0
  0
CIRCLE
  5
29DD
100
AcDbEntity
  8
LJ
 62
     5
100
AcDbCircle
 10
57356.524985
 20
12497.449902
 30
0.0
 40
35.0
  0
ARC
  5
29DE
100
AcDbEntity
  8
LJ
 62
     5
100
AcDbCircle
 10
57356.524985
 20
12497.449902
 30
0.0
 40
74.9999
100
AcDbArc
 50
260.403
 51
99.5975
  0
CIRCLE
  5
29DF
100
AcDbEntity
  8
LJ
 62
     5
100
AcDbCircle
 10
57356.524985
 20
12497.449902
 30
0.0
 40
34.9999
  0
LINE
  5
29E0
100
AcDbEntity
  8
LJ
 62
     5
100
AcDbLine
 10
57261.591838
 20
12562.421493
 30
0.0
 11
57261.600708
 21
12432.387921
 31
0.0
  0
LINE
  5
29E1
100
AcDbEntity
  8
LJ
 62
     5
100
AcDbLine
 10
57261.51323
 20
12437.456682
 30
0.0
 11
57344.030797
 21
12423.488458
 31
0.0
  0
LINE
  5
29E2
100
AcDbEntity
  8
LJ
 62
     5
100
AcDbLine
 10
57261.548192
 20
12557.405708
 30
0.0
 11
57344.057471
 21
12571.353428
 31
0.0
  0
LINE
  5
29E3
100
AcDbEntity
  8
LJ
 62
     5
100
AcDbLine
 10
57261.591838
 20
12562.421493
 30
0.0
 11
57229.552806
 21
12562.401235
 31
0.0
  0
LINE
  5
29E4
100
AcDbEntity
  8
LJ
 62
     5
100
AcDbLine
 10
57261.600708
 20
12432.387921
 30
0.0
 11
57229.548763
 21
12432.499015
 31
0.0
  0
LINE
  5
29E5
100
AcDbEntity
  8
LJ
 62
     5
100
AcDbLine
 10
57229.552806
 20
12562.401235
 30
0.0
 11
57229.548763
 21
12432.499015
 31
0.0
  0
CIRCLE
  5
29E7
100
AcDbEntity
  8
LJ
 62
     5
100
AcDbCircle
 10
57356.505935
 20
13897.434434
 30
0.0
 40
35.0
  0
ARC
  5
29E8
100
AcDbEntity
  8
LJ
 62
     5
100
AcDbCircle
 10
57356.505935
 20
13897.434434
 30
0.0
 40
74.9999
100
AcDbArc
 50
260.403
 51
99.5975
  0
CIRCLE
  5
29E9
100
AcDbEntity
  8
LJ
 62
     5
100
AcDbCircle
 10
57356.505935
 20
13897.434434
 30
0.0
 40
34.9999
  0
LINE
  5
29EA
100
AcDbEntity
  8
LJ
 62
     5
100
AcDbLine
 10
57229.533755
 20
13962.385767
 30
0.0
 11
57229.503552
 21
13832.444245
 31
0.0
  0
LINE
  5
29EB
100
AcDbEntity
  8
LJ
 62
     5
100
AcDbLine
 10
57261.529141
 20
13957.39024
 30
0.0
 11
57344.03842
 21
13971.33796
 31
0.0
  0
LINE
  5
29EC
100
AcDbEntity
  8
LJ
 62
     5
100
AcDbLine
 10
57261.572788
 20
13962.406025
 30
0.0
 11
57229.533755
 21
13962.385767
 31
0.0
  0
LINE
  5
29ED
100
AcDbEntity
  8
LJ
 62
     5
100
AcDbLine
 10
57261.581657
 20
13832.372452
 30
0.0
 11
57229.503552
 21
13832.444245
 31
0.0
  0
LINE
  5
29EE
100
AcDbEntity
  8
LJ
 62
     5
100
AcDbLine
 10
57261.49418
 20
13837.441214
 30
0.0
 11
57344.011746
 21
13823.47299
 31
0.0
  0
LINE
  5
29EF
100
AcDbEntity
  8
LJ
 62
     5
100
AcDbLine
 10
57261.572788
 20
13962.406025
 30
0.0
 11
57261.581657
 21
13832.372452
 31
0.0
  0
POINT
  5
29F0
100
AcDbEntity
  8
LJ
 62
     5
100
AcDbPoint
 10
57356.543336
 20
13197.411198
 30
0.0
  0
TEXT
  5
29F1
100
AcDbEntity
  8
0
100
AcDbText
 10
52160.014555
 20
16834.686808
 30
0.0
 40
700.0
  1
B410109
  7
EXTFONT
100
AcDbText
  0
POINT
  5
29F2
100
AcDbEntity
  8
LJ
 62
     5
100
AcDbPoint
 10
52356.550071
 20
12947.445558
 30
0.0
  0
TEXT
  5
2B3B
100
AcDbEntity
  8
点
 62
     7
100
AcDbText
 10
46136.109912
 20
6796.690787
 30
0.0
 40
320.0
  1
ALL RIGHTS RESERVED,COPYRIGHT(C) TADANOSYSTEMS INC.
100
AcDbText
  0
LINE
  5
2B3C
100
AcDbEntity
  8
0
  6
CONTINUOUS
 62
     7
100
AcDbLine
 10
46185.580316
 20
6287.002048
 30
0.0
 11
47277.580316
 21
6287.002048
 31
0.0
  0
LINE
  5
2B3D
100
AcDbEntity
  8
0
  6
CONTINUOUS
 62
     7
100
AcDbLine
 10
46185.580316
 20
5447.002048
 30
0.0
 11
47277.580316
 21
6287.002048
 31
0.0
  0
LINE
  5
2B3E
100
AcDbEntity
  8
0
  6
CONTINUOUS
 62
     7
100
AcDbLine
 10
46185.580316
 20
6287.002048
 30
0.0
 11
46185.580316
 21
5447.002048
 31
0.0
  0
LINE
  5
2B3F
100
AcDbEntity
  8
0
  6
CONTINUOUS
 62
     7
100
AcDbLine
 10
46465.580316
 20
5167.002048
 30
0.0
 11
47305.580316
 21
6287.002048
 31
0.0
  0
LINE
  5
2B40
100
AcDbEntity
  8
0
  6
CONTINUOUS
 62
     7
100
AcDbLine
 10
47753.580316
 20
6287.002048
 30
0.0
 11
47753.580316
 21
5727.002048
 31
0.0
  0
LINE
  5
2B41
100
AcDbEntity
  8
0
  6
CONTINUOUS
 62
     7
100
AcDbLine
 10
46465.580316
 20
5167.002048
 30
0.0
 11
47305.580316
 21
5167.002048
 31
0.0
  0
LINE
  5
2B42
100
AcDbEntity
  8
0
  6
CONTINUOUS
 62
     7
100
AcDbLine
 10
47305.580316
 20
5727.002048
 30
0.0
 11
47753.580316
 21
5727.002048
 31
0.0
  0
LINE
  5
2B43
100
AcDbEntity
  8
0
  6
CONTINUOUS
 62
     7
100
AcDbLine
 10
47305.580316
 20
5727.002048
 30
0.0
 11
47305.580316
 21
5167.002048
 31
0.0
  0
LINE
  5
2B44
100
AcDbEntity
  8
0
  6
CONTINUOUS
 62
     7
100
AcDbLine
 10
47305.580316
 20
6287.002048
 30
0.0
 11
47753.580316
 21
6287.002048
 31
0.0
  0
LINE
  5
2B45
100
AcDbEntity
  8
0
  6
CONTINUOUS
 62
     7
100
AcDbLine
 10
50042.940316
 20
6287.002048
 30
0.0
 11
50234.220316
 21
6287.002048
 31
0.0
  0
LINE
  5
2B46
100
AcDbEntity
  8
0
  6
CONTINUOUS
 62
     7
100
AcDbLine
 10
50084.860316
 20
5926.762048
 30
0.0
 11
50192.380316
 21
5926.762048
 31
0.0
  0
LINE
  5
2B47
100
AcDbEntity
  8
0
  6
CONTINUOUS
 62
     7
100
AcDbLine
 10
50048.300316
 20
5808.602048
 30
0.0
 11
50228.860316
 21
5808.602048
 31
0.0
  0
LINE
  5
2B48
100
AcDbEntity
  8
0
  6
CONTINUOUS
 62
     7
100
AcDbLine
 10
50126.700316
 20
6062.522048
 30
0.0
 11
50084.860316
 21
5926.762048
 31
0.0
  0
LINE
  5
2B49
100
AcDbEntity
  8
0
  6
CONTINUOUS
 62
     7
100
AcDbLine
 10
50048.300316
 20
5808.602048
 30
0.0
 11
50023.260316
 21
5727.002048
 31
0.0
  0
ARC
  5
2B4A
100
AcDbEntity
  8
0
  6
CONTINUOUS
 62
     7
100
AcDbCircle
 10
49619.820316
 20
5966.202048
 30
0.0
 40
239.212
100
AcDbArc
 50
270.0
 51
341.626
  0
LINE
  5
2B4B
100
AcDbEntity
  8
0
  6
CONTINUOUS
 62
     7
100
AcDbLine
 10
49115.820316
 20
5808.602048
 30
0.0
 11
49140.860316
 21
5727.002048
 31
0.0
  0
LINE
  5
2B4C
100
AcDbEntity
  8
0
  6
CONTINUOUS
 62
     7
100
AcDbLine
 10
48935.340316
 20
5808.602048
 30
0.0
 11
48910.140316
 21
5727.002048
 31
0.0
  0
LINE
  5
2B4D
100
AcDbEntity
  8
0
  6
CONTINUOUS
 62
     7
100
AcDbLine
 10
49840.300316
 20
5727.002048
 30
0.0
 11
50042.940316
 21
6287.002048
 31
0.0
  0
LINE
  5
2B4E
100
AcDbEntity
  8
0
  6
CONTINUOUS
 62
     7
100
AcDbLine
 10
49121.260316
 20
6287.002048
 30
0.0
 11
49323.900316
 21
5727.002048
 31
0.0
  0
LINE
  5
2B4F
100
AcDbEntity
  8
0
  6
CONTINUOUS
 62
     7
100
AcDbLine
 10
49353.500316
 20
6287.002048
 30
0.0
 11
49353.500316
 21
5727.002048
 31
0.0
  0
LINE
  5
2B50
100
AcDbEntity
  8
0
  6
CONTINUOUS
 62
     7
100
AcDbLine
 10
48929.900316
 20
6287.002048
 30
0.0
 11
48727.260316
 21
5727.002048
 31
0.0
  0
LINE
  5
2B51
100
AcDbEntity
  8
0
  6
CONTINUOUS
 62
     7
100
AcDbLine
 10
48469.820316
 20
6135.002048
 30
0.0
 11
48469.820316
 21
5727.002048
 31
0.0
  0
LINE
  5
2B52
100
AcDbEntity
  8
0
  6
CONTINUOUS
 62
     7
100
AcDbLine
 10
48647.100316
 20
6135.002048
 30
0.0
 11
48647.100316
 21
5727.002048
 31
0.0
  0
LINE
  5
2B53
100
AcDbEntity
  8
0
  6
CONTINUOUS
 62
     7
100
AcDbLine
 10
48469.820316
 20
5727.002048
 30
0.0
 11
48647.100316
 21
5727.002048
 31
0.0
  0
LINE
  5
2B54
100
AcDbEntity
  8
0
  6
CONTINUOUS
 62
     7
100
AcDbLine
 10
48727.260316
 20
5727.002048
 30
0.0
 11
48910.140316
 21
5727.002048
 31
0.0
  0
LINE
  5
2B55
100
AcDbEntity
  8
0
  6
CONTINUOUS
 62
     7
100
AcDbLine
 10
49353.500316
 20
5727.002048
 30
0.0
 11
49619.820316
 21
5727.002048
 31
0.0
  0
LINE
  5
2B56
100
AcDbEntity
  8
0
  6
CONTINUOUS
 62
     7
100
AcDbLine
 10
49140.860316
 20
5727.002048
 30
0.0
 11
49323.900316
 21
5727.002048
 31
0.0
  0
LINE
  5
2B57
100
AcDbEntity
  8
0
  6
CONTINUOUS
 62
     7
100
AcDbLine
 10
49840.300316
 20
5727.002048
 30
0.0
 11
50023.260316
 21
5727.002048
 31
0.0
  0
LINE
  5
2B58
100
AcDbEntity
  8
0
  6
CONTINUOUS
 62
     7
100
AcDbLine
 10
48313.580316
 20
6287.002048
 30
0.0
 11
48803.180316
 21
6287.002048
 31
0.0
  0
LINE
  5
2B59
100
AcDbEntity
  8
0
  6
CONTINUOUS
 62
     7
100
AcDbLine
 10
48313.580316
 20
6287.002048
 30
0.0
 11
48313.580316
 21
6135.002048
 31
0.0
  0
LINE
  5
2B5A
100
AcDbEntity
  8
0
  6
CONTINUOUS
 62
     7
100
AcDbLine
 10
48313.580316
 20
6135.002048
 30
0.0
 11
48469.820316
 21
6135.002048
 31
0.0
  0
ARC
  5
2B5B
100
AcDbEntity
  8
0
  6
CONTINUOUS
 62
     7
100
AcDbCircle
 10
49318.220316
 20
6149.082048
 30
0.0
 40
293.7896
100
AcDbArc
 50
188.261
 51
197.133
  0
LINE
  5
2B5C
100
AcDbEntity
  8
0
  6
CONTINUOUS
 62
     7
100
AcDbLine
 10
48803.180316
 20
6287.002048
 30
0.0
 11
48803.180316
 21
6135.002048
 31
0.0
  0
ARC
  5
2B5D
100
AcDbEntity
  8
0
  6
CONTINUOUS
 62
     7
100
AcDbCircle
 10
48732.860316
 20
6149.082048
 30
0.0
 40
293.7904
100
AcDbArc
 50
342.867
 51
351.73902
  0
LINE
  5
2B5E
100
AcDbEntity
  8
0
  6
CONTINUOUS
 62
     7
100
AcDbLine
 10
48647.100316
 20
6135.002048
 30
0.0
 11
48803.180316
 21
6135.002048
 31
0.0
  0
LINE
  5
2B5F
100
AcDbEntity
  8
0
  6
CONTINUOUS
 62
     7
100
AcDbLine
 10
49023.660316
 20
6106.922048
 30
0.0
 11
49027.580316
 21
6106.922048
 31
0.0
  0
LINE
  5
2B60
100
AcDbEntity
  8
0
  6
CONTINUOUS
 62
     7
100
AcDbLine
 10
48929.900316
 20
6287.002048
 30
0.0
 11
49121.260316
 21
6287.002048
 31
0.0
  0
LINE
  5
2B61
100
AcDbEntity
  8
0
  6
CONTINUOUS
 62
     7
100
AcDbLine
 10
48935.340316
 20
5808.602048
 30
0.0
 11
49115.820316
 21
5808.602048
 31
0.0
  0
LINE
  5
2B62
100
AcDbEntity
  8
0
  6
CONTINUOUS
 62
     7
100
AcDbLine
 10
48971.740316
 20
5926.762048
 30
0.0
 11
49079.260316
 21
5926.762048
 31
0.0
  0
LINE
  5
2B63
100
AcDbEntity
  8
0
  6
CONTINUOUS
 62
     7
100
AcDbLine
 10
49037.500316
 20
6062.522048
 30
0.0
 11
49079.260316
 21
5926.762048
 31
0.0
  0
LINE
  5
2B64
100
AcDbEntity
  8
0
  6
CONTINUOUS
 62
     7
100
AcDbLine
 10
49013.660316
 20
6062.522048
 30
0.0
 11
48971.740316
 21
5926.762048
 31
0.0
  0
ARC
  5
2B65
100
AcDbEntity
  8
0
  6
CONTINUOUS
 62
     7
100
AcDbCircle
 10
49592.460316
 20
6050.522048
 30
0.0
 40
98.4984
100
AcDbArc
 50
22.2133
 51
90.0
  0
LINE
  5
2B66
100
AcDbEntity
  8
0
  6
CONTINUOUS
 62
     7
100
AcDbLine
 10
49353.500316
 20
6287.002048
 30
0.0
 11
49633.260316
 21
6287.002048
 31
0.0
  0
ARC
  5
2B67
100
AcDbEntity
  8
0
  6
CONTINUOUS
 62
     7
100
AcDbCircle
 10
49591.660316
 20
5969.002048
 30
0.0
 40
101.3144
100
AcDbArc
 50
270.0
 51
340.276
  0
LINE
  5
2B68
100
AcDbEntity
  8
0
  6
CONTINUOUS
 62
     7
100
AcDbLine
 10
49519.420316
 20
6149.082048
 30
0.0
 11
49592.460316
 21
6149.082048
 31
0.0
  0
LINE
  5
2B69
100
AcDbEntity
  8
0
  6
CONTINUOUS
 62
     7
100
AcDbLine
 10
49519.420316
 20
5867.642048
 30
0.0
 11
49591.660316
 21
5867.642048
 31
0.0
  0
LINE
  5
2B6A
100
AcDbEntity
  8
0
  6
CONTINUOUS
 62
     7
100
AcDbLine
 10
49519.420316
 20
6149.082048
 30
0.0
 11
49519.420316
 21
5867.642048
 31
0.0
  0
ARC
  5
2B6B
100
AcDbEntity
  8
0
  6
CONTINUOUS
 62
     7
100
AcDbCircle
 10
49633.260316
 20
6067.482048
 30
0.0
 40
219.5136
100
AcDbArc
 50
23.9328
 51
90.0
  0
ARC
  5
2B6C
100
AcDbEntity
  8
0
  6
CONTINUOUS
 62
     7
100
AcDbCircle
 10
49496.940316
 20
6007.002048
 30
0.0
 40
368.668
100
AcDbArc
 50
341.626
 51
23.9327
  0
ARC
  5
2B6D
100
AcDbEntity
  8
0
  6
CONTINUOUS
 62
     7
100
AcDbCircle
 10
49485.660316
 20
6007.002048
 30
0.0
 40
213.884
100
AcDbArc
 50
340.276
 51
22.213
  0
ARC
  5
2B6E
100
AcDbEntity
  8
0
  6
CONTINUOUS
 62
     7
100
AcDbCircle
 10
51306.540316
 20
5965.962048
 30
0.0
 40
247.6544
100
AcDbArc
 50
206.967
 51
252.685
  0
ARC
  5
2B6F
100
AcDbEntity
  8
0
  6
CONTINUOUS
 62
     7
100
AcDbCircle
 10
51359.980316
 20
5965.962048
 30
0.0
 40
247.6568
100
AcDbArc
 50
287.263
 51
332.938
  0
LINE
  5
2B70
100
AcDbEntity
  8
0
  6
CONTINUOUS
 62
     7
100
AcDbLine
 10
50228.860316
 20
5808.602048
 30
0.0
 11
50253.980316
 21
5727.002048
 31
0.0
  0
LINE
  5
2B71
100
AcDbEntity
  8
0
  6
CONTINUOUS
 62
     7
100
AcDbLine
 10
50981.500316
 20
6287.002048
 30
0.0
 11
50981.500316
 21
5727.002048
 31
0.0
  0
LINE
  5
2B72
100
AcDbEntity
  8
0
  6
CONTINUOUS
 62
     7
100
AcDbLine
 10
50234.220316
 20
6287.002048
 30
0.0
 11
50436.940316
 21
5727.002048
 31
0.0
  0
LINE
  5
2B73
100
AcDbEntity
  8
0
  6
CONTINUOUS
 62
     7
100
AcDbLine
 10
50466.380316
 20
6287.002048
 30
0.0
 11
50466.380316
 21
5727.002048
 31
0.0
  0
LINE
  5
2B74
100
AcDbEntity
  8
0
  6
CONTINUOUS
 62
     7
100
AcDbLine
 10
50650.460316
 20
5995.322048
 30
0.0
 11
50815.420316
 21
5727.002048
 31
0.0
  0
LINE
  5
2B75
100
AcDbEntity
  8
0
  6
CONTINUOUS
 62
     7
100
AcDbLine
 10
50626.940316
 20
5994.362048
 30
0.0
 11
50626.940316
 21
5727.002048
 31
0.0
  0
LINE
  5
2B76
100
AcDbEntity
  8
0
  6
CONTINUOUS
 62
     7
100
AcDbLine
 10
50466.380316
 20
5727.002048
 30
0.0
 11
50626.940316
 21
5727.002048
 31
0.0
  0
LINE
  5
2B77
100
AcDbEntity
  8
0
  6
CONTINUOUS
 62
     7
100
AcDbLine
 10
50253.980316
 20
5727.002048
 30
0.0
 11
50436.940316
 21
5727.002048
 31
0.0
  0
LINE
  5
2B78
100
AcDbEntity
  8
0
  6
CONTINUOUS
 62
     7
100
AcDbLine
 10
50815.420316
 20
5727.002048
 30
0.0
 11
50981.500316
 21
5727.002048
 31
0.0
  0
ARC
  5
2B79
100
AcDbEntity
  8
0
  6
CONTINUOUS
 62
     7
100
AcDbCircle
 10
51333.260316
 20
6051.962048
 30
0.0
 40
337.7128
100
AcDbArc
 50
252.699
 51
287.263
  0
ARC
  5
2B7A
100
AcDbEntity
  8
0
  6
CONTINUOUS
 62
     7
100
AcDbCircle
 10
51306.540316
 20
6047.962048
 30
0.0
 40
247.6568
100
AcDbArc
 50
107.346
 51
153.043
  0
ARC
  5
2B7B
100
AcDbEntity
  8
0
  6
CONTINUOUS
 62
     7
100
AcDbCircle
 10
51386.700316
 20
6007.002048
 30
0.0
 40
337.7128
100
AcDbArc
 50
152.861
 51
207.131
  0
LINE
  5
2B7C
100
AcDbEntity
  8
0
  6
CONTINUOUS
 62
     7
100
AcDbLine
 10
50466.380316
 20
6287.002048
 30
0.0
 11
50632.540316
 21
6287.002048
 31
0.0
  0
ARC
  5
2B7D
100
AcDbEntity
  8
0
  6
CONTINUOUS
 62
     7
100
AcDbCircle
 10
49845.900316
 20
6149.082048
 30
0.0
 40
293.7904
100
AcDbArc
 50
342.867
 51
351.73902
  0
ARC
  5
2B7E
100
AcDbEntity
  8
0
  6
CONTINUOUS
 62
     7
100
AcDbCircle
 10
50431.260316
 20
6149.082048
 30
0.0
 40
293.7896
100
AcDbArc
 50
188.261
 51
197.133
  0
LINE
  5
2B7F
100
AcDbEntity
  8
0
  6
CONTINUOUS
 62
     7
100
AcDbLine
 10
50136.700316
 20
6106.922048
 30
0.0
 11
50140.460316
 21
6106.922048
 31
0.0
  0
LINE
  5
2B80
100
AcDbEntity
  8
0
  6
CONTINUOUS
 62
     7
100
AcDbLine
 10
50150.540316
 20
6062.522048
 30
0.0
 11
50192.380316
 21
5926.762048
 31
0.0
  0
LINE
  5
2B81
100
AcDbEntity
  8
0
  6
CONTINUOUS
 62
     7
100
AcDbLine
 10
50632.540316
 20
6287.002048
 30
0.0
 11
50797.500316
 21
6018.602048
 31
0.0
  0
LINE
  5
2B82
100
AcDbEntity
  8
0
  6
CONTINUOUS
 62
     7
100
AcDbLine
 10
50821.020316
 20
6287.002048
 30
0.0
 11
50821.020316
 21
6019.642048
 31
0.0
  0
ARC
  5
2B83
100
AcDbEntity
  8
0
  6
CONTINUOUS
 62
     7
100
AcDbCircle
 10
50266.620316
 20
5994.362048
 30
0.0
 40
360.2264
100
AcDbArc
 50
0.0
 51
6.7299
  0
ARC
  5
2B84
100
AcDbEntity
  8
0
  6
CONTINUOUS
 62
     7
100
AcDbCircle
 10
51124.940316
 20
6287.002048
 30
0.0
 40
557.0016
100
AcDbArc
 50
206.723
 51
211.578
  0
LINE
  5
2B85
100
AcDbEntity
  8
0
  6
CONTINUOUS
 62
     7
100
AcDbLine
 10
50624.300316
 20
6036.522048
 30
0.0
 11
50627.500316
 21
6036.522048
 31
0.0
  0
ARC
  5
2B86
100
AcDbEntity
  8
0
  6
CONTINUOUS
 62
     7
100
AcDbCircle
 10
51181.340316
 20
6019.642048
 30
0.0
 40
360.2264
100
AcDbArc
 50
180.0
 51
186.73
  0
LINE
  5
2B87
100
AcDbEntity
  8
0
  6
CONTINUOUS
 62
     7
100
AcDbLine
 10
50820.460316
 20
5977.402048
 30
0.0
 11
50823.580316
 21
5977.402048
 31
0.0
  0
ARC
  5
2B88
100
AcDbEntity
  8
0
  6
CONTINUOUS
 62
     7
100
AcDbCircle
 10
50322.940316
 20
5727.002048
 30
0.0
 40
556.9992
100
AcDbArc
 50
26.7228
 51
31.5781
  0
LINE
  5
2B89
100
AcDbEntity
  8
0
  6
CONTINUOUS
 62
     7
100
AcDbLine
 10
50821.020316
 20
6287.002048
 30
0.0
 11
50981.500316
 21
6287.002048
 31
0.0
  0
ARC
  5
2B8A
100
AcDbEntity
  8
0
  6
CONTINUOUS
 62
     7
100
AcDbCircle
 10
51359.980316
 20
6047.962048
 30
0.0
 40
247.6552
100
AcDbArc
 50
27.0618
 51
72.7366
  0
ARC
  5
2B8B
100
AcDbEntity
  8
0
  6
CONTINUOUS
 62
     7
100
AcDbCircle
 10
51333.260316
 20
6053.802048
 30
0.0
 40
99.4976
100
AcDbArc
 50
14.6894
 51
164.799
  0
ARC
  5
2B8C
100
AcDbEntity
  8
0
  6
CONTINUOUS
 62
     7
100
AcDbCircle
 10
51333.260316
 20
5961.962048
 30
0.0
 40
337.7128
100
AcDbArc
 50
72.7367
 51
107.323
  0
ARC
  5
2B8D
100
AcDbEntity
  8
0
  6
CONTINUOUS
 62
     7
100
AcDbCircle
 10
51333.260316
 20
5960.202048
 30
0.0
 40
99.4984
100
AcDbArc
 50
195.203
 51
345.311
  0
ARC
  5
2B8E
100
AcDbEntity
  8
0
  6
CONTINUOUS
 62
     7
100
AcDbCircle
 10
51154.540316
 20
6007.002048
 30
0.0
 40
284.24
100
AcDbArc
 50
345.311
 51
14.6886
  0
ARC
  5
2B8F
100
AcDbEntity
  8
0
  6
CONTINUOUS
 62
     7
100
AcDbCircle
 10
51511.900316
 20
6007.002048
 30
0.0
 40
284.24
100
AcDbArc
 50
165.132
 51
194.869
  0
ARC
  5
2B90
100
AcDbEntity
  8
0
  6
CONTINUOUS
 62
     7
100
AcDbCircle
 10
51279.740316
 20
6007.002048
 30
0.0
 40
337.7128
100
AcDbArc
 50
332.938
 51
27.062
  0
ENDSEC
  0
SECTION
  2
OBJECTS
  0
DICTIONARY
  5
2C0C
100
AcDbDictionary
  3
ACAD_GROUP
350
2C0D
  3
ACAD_MLINESTYLE
350
2C1A
  3
ACDBVARIABLEDICTIONARY
350
2C32
  0
DICTIONARY
  5
2C0D
102
{ACAD_REACTORS
330
2C0C
102
}
100
AcDbDictionary
  0
DICTIONARY
  5
2C1A
102
{ACAD_REACTORS
330
2C0C
102
}
100
AcDbDictionary
  3
STANDARD
350
2C1B
  0
DICTIONARY
  5
2C32
102
{ACAD_REACTORS
330
2C0C
102
}
100
AcDbDictionary
  3
DIMADEC
350
2C33
  0
MLINESTYLE
  5
2C1B
102
{ACAD_REACTORS
330
2C1A
102
}
100
AcDbMlineStyle
  2
STANDARD
 70
     0
  3

 62
   256
 51
90.0
 52
90.0
 71
     2
 49
0.5
 62
   256
  6
BYLAYER
 49
-0.5
 62
   256
  6
BYLAYER
  0
DICTIONARYVAR
  5
2C33
102
{ACAD_REACTORS
330
2C32
102
}
100
DictionaryVariables
280
     0
  1
1
  0
ENDSEC
  0
EOF
