  0
SECTION
  2
HEADER
  9
$ACADVER
  1
AC1012
  9
$DWGCODEPAGE
  3
dos932
  9
$INSBASE
 10
0.0
 20
0.0
 30
0.0
  9
$EXTMIN
 10
512.035584
 20
4837.752235
 30
0.0
  9
$EXTMAX
 10
45782.147162
 20
23085.069132
 30
0.0
  9
$LIMMIN
 10
0.0
 20
0.0
  9
$LIMMAX
 10
48108.55197
 20
23548.001171
  9
$ORTHOMODE
 70
     0
  9
$REGENMODE
 70
     1
  9
$FILLMODE
 70
     1
  9
$QTEXTMODE
 70
     0
  9
$MIRRTEXT
 70
     1
  9
$DRAGMODE
 70
     2
  9
$LTSCALE
 40
500.0
  9
$OSMODE
 70
     0
  9
$ATTMODE
 70
     1
  9
$TEXTSIZE
 40
1000.0
  9
$TRACEWID
 40
0.05
  9
$TEXTSTYLE
  7
STANDARD
  9
$CLAYER
  8
0
  9
$CELTYPE
  6
BYLAYER
  9
$CECOLOR
 62
   256
  9
$CELTSCALE
 40
1.0
  9
$DELOBJ
 70
     1
  9
$DISPSILH
 70
     0
  9
$DIMSCALE
 40
1.0
  9
$DIMASZ
 40
200.0
  9
$DIMEXO
 40
100.0
  9
$DIMDLI
 40
200.0
  9
$DIMRND
 40
1.0
  9
$DIMDLE
 40
0.0
  9
$DIMEXE
 40
100.0
  9
$DIMTP
 40
0.0
  9
$DIMTM
 40
0.0
  9
$DIMTXT
 40
500.0
  9
$DIMCEN
 40
0.0
  9
$DIMTSZ
 40
0.0
  9
$DIMTOL
 70
     0
  9
$DIMLIM
 70
     0
  9
$DIMTIH
 70
     0
  9
$DIMTOH
 70
     0
  9
$DIMSE1
 70
     0
  9
$DIMSE2
 70
     0
  9
$DIMTAD
 70
     1
  9
$DIMZIN
 70
     8
  9
$DIMBLK
  1

  9
$DIMASO
 70
     1
  9
$DIMSHO
 70
     1
  9
$DIMPOST
  1

  9
$DIMAPOST
  1

  9
$DIMALT
 70
     0
  9
$DIMALTD
 70
     2
  9
$DIMALTF
 40
25.4
  9
$DIMLFAC
 40
1.0
  9
$DIMTOFL
 70
     0
  9
$DIMTVP
 40
0.0
  9
$DIMTIX
 70
     0
  9
$DIMSOXD
 70
     0
  9
$DIMSAH
 70
     0
  9
$DIMBLK1
  1

  9
$DIMBLK2
  1

  9
$DIMSTYLE
  2
STANDARD
  9
$DIMCLRD
 70
     0
  9
$DIMCLRE
 70
     0
  9
$DIMCLRT
 70
     0
  9
$DIMTFAC
 40
1.0
  9
$DIMGAP
 40
0.0
  9
$DIMJUST
 70
     0
  9
$DIMSD1
 70
     0
  9
$DIMSD2
 70
     0
  9
$DIMTOLJ
 70
     1
  9
$DIMTZIN
 70
     8
  9
$DIMALTZ
 70
     8
  9
$DIMALTTZ
 70
     8
  9
$DIMFIT
 70
     5
  9
$DIMUPT
 70
     0
  9
$DIMUNIT
 70
     2
  9
$DIMDEC
 70
     2
  9
$DIMTDEC
 70
     2
  9
$DIMALTU
 70
     2
  9
$DIMALTTD
 70
     2
  9
$DIMTXSTY
  7
STANDARD
  9
$DIMAUNIT
 70
     0
  9
$LUNITS
 70
     2
  9
$LUPREC
 70
     2
  9
$SKETCHINC
 40
0.1
  9
$FILLETRAD
 40
5.0
  9
$AUNITS
 70
     0
  9
$AUPREC
 70
     0
  9
$MENU
  1
CADLOG
  9
$ELEVATION
 40
0.0
  9
$PELEVATION
 40
0.0
  9
$THICKNESS
 40
0.0
  9
$LIMCHECK
 70
     0
  9
$BLIPMODE
 70
     0
  9
$CHAMFERA
 40
0.0
  9
$CHAMFERB
 40
0.0
  9
$CHAMFERC
 40
0.0
  9
$CHAMFERD
 40
0.0
  9
$SKPOLY
 70
     0
  9
$TDCREATE
 40
2451816.660210764
  9
$TDUPDATE
 40
2451816.660210764
  9
$TDINDWG
 40
0.0000000000
  9
$TDUSRTIMER
 40
0.0000000000
  9
$USRTIMER
 70
     1
  9
$ANGBASE
 50
0.0
  9
$ANGDIR
 70
     0
  9
$PDMODE
 70
    35
  9
$PDSIZE
 40
-3.0
  9
$PLINEWID
 40
0.0
  9
$COORDS
 70
     1
  9
$SPLFRAME
 70
     0
  9
$SPLINETYPE
 70
     6
  9
$SPLINESEGS
 70
     8
  9
$ATTDIA
 70
     0
  9
$ATTREQ
 70
     1
  9
$HANDLING
 70
     1
  9
$HANDSEED
  5
23A9
  9
$SURFTAB1
 70
     6
  9
$SURFTAB2
 70
     6
  9
$SURFTYPE
 70
     6
  9
$SURFU
 70
     6
  9
$SURFV
 70
     6
  9
$UCSNAME
  2

  9
$UCSORG
 10
0.0
 20
0.0
 30
0.0
  9
$UCSXDIR
 10
1.0
 20
0.0
 30
0.0
  9
$UCSYDIR
 10
0.0
 20
1.0
 30
0.0
  9
$PUCSNAME
  2

  9
$PUCSORG
 10
0.0
 20
0.0
 30
0.0
  9
$PUCSXDIR
 10
1.0
 20
0.0
 30
0.0
  9
$PUCSYDIR
 10
0.0
 20
1.0
 30
0.0
  9
$USERI1
 70
     0
  9
$USERI2
 70
     0
  9
$USERI3
 70
     0
  9
$USERI4
 70
     0
  9
$USERI5
 70
     0
  9
$USERR1
 40
0.0
  9
$USERR2
 40
0.0
  9
$USERR3
 40
0.0
  9
$USERR4
 40
0.0
  9
$USERR5
 40
0.0
  9
$WORLDVIEW
 70
     1
  9
$SHADEDGE
 70
     3
  9
$SHADEDIF
 70
    70
  9
$TILEMODE
 70
     1
  9
$MAXACTVP
 70
    16
  9
$PINSBASE
 10
0.0
 20
0.0
 30
0.0
  9
$PLIMCHECK
 70
     0
  9
$PEXTMIN
 10
1.000000E+20
 20
1.000000E+20
 30
1.000000E+20
  9
$PEXTMAX
 10
-1.000000E+20
 20
-1.000000E+20
 30
-1.000000E+20
  9
$PLIMMIN
 10
0.0
 20
0.0
  9
$PLIMMAX
 10
12.0
 20
9.0
  9
$UNITMODE
 70
     0
  9
$VISRETAIN
 70
     0
  9
$PLINEGEN
 70
     0
  9
$PSLTSCALE
 70
     1
  9
$TREEDEPTH
 70
  3020
  9
$PICKSTYLE
 70
     1
  9
$CMLSTYLE
  2
STANDARD
  9
$CMLJUST
 70
     0
  9
$CMLSCALE
 40
1.0
  9
$SAVEIMAGES
 70
     1
  0
ENDSEC
  0
SECTION
  2
CLASSES
  0
CLASS
  1
DICTIONARYVAR
  2
AcDbDictionaryVar
  3
"AutoCAD"
 90
    32768
280
     0
281
     0
  0
ENDSEC
  0
SECTION
  2
TABLES
  0
TABLE
  2
VPORT
  5
2380
100
AcDbSymbolTable
 70
     2
  0
VPORT
  5
23A8
100
AcDbSymbolTableRecord
100
AcDbViewportTableRecord
  2
*ACTIVE
 70
     0
 10
0.0
 20
0.0
 11
1.0
 21
1.0
 12
23145.854266
 22
13961.324512
 13
0.0
 23
0.0
 14
500.0
 24
500.0
 15
0.0
 25
0.0
 16
0.0
 26
0.0
 36
1.0
 17
0.0
 27
0.0
 37
0.0
 40
25813.309221
 41
1.765267
 42
50.0
 43
0.0
 44
0.0
 50
0.0
 51
0.0
 71
     0
 72
   100
 73
     1
 74
     1
 75
     0
 76
     0
 77
     0
 78
     0
  0
ENDTAB
  0
TABLE
  2
LTYPE
  5
237D
100
AcDbSymbolTable
 70
     3
  0
LTYPE
  5
2389
100
AcDbSymbolTableRecord
100
AcDbLinetypeTableRecord
  2
BYBLOCK
 70
     0
  3

 72
    65
 73
     0
 40
0.0
  0
LTYPE
  5
238A
100
AcDbSymbolTableRecord
100
AcDbLinetypeTableRecord
  2
BYLAYER
 70
     0
  3

 72
    65
 73
     0
 40
0.0
  0
LTYPE
  5
238B
100
AcDbSymbolTableRecord
100
AcDbLinetypeTableRecord
  2
CONTINUOUS
 70
     0
  3
Solid line
 72
    65
 73
     0
 40
0.0
  0
LTYPE
  5
2395
100
AcDbSymbolTableRecord
100
AcDbLinetypeTableRecord
  2
CENTER
 70
     0
  3
CENTER
 72
    65
 73
     4
 40
2.0
 49
1.25
 74
     0
 49
-0.25
 74
     0
 49
0.25
 74
     0
 49
-0.25
 74
     0
  0
LTYPE
  5
2396
100
AcDbSymbolTableRecord
100
AcDbLinetypeTableRecord
  2
PHANTOM
 70
     0
  3
PHANTOM
 72
    65
 73
     6
 40
2.5
 49
1.25
 74
     0
 49
-0.25
 74
     0
 49
0.25
 74
     0
 49
-0.25
 74
     0
 49
0.25
 74
     0
 49
-0.25
 74
     0
  0
ENDTAB
  0
TABLE
  2
LAYER
  5
237A
100
AcDbSymbolTable
 70
     7
  0
LAYER
  5
2386
100
AcDbSymbolTableRecord
100
AcDbLayerTableRecord
  2
0
 70
     0
 62
     7
  6
CONTINUOUS
  0
LAYER
  5
2399
100
AcDbSymbolTableRecord
100
AcDbLayerTableRecord
  2
LJIB
 70
     0
 62
     2
  6
CONTINUOUS
  0
LAYER
  5
239A
100
AcDbSymbolTableRecord
100
AcDbLayerTableRecord
  2
SUPORT1
 70
     0
 62
     2
  6
CONTINUOUS
  0
LAYER
  5
239B
100
AcDbSymbolTableRecord
100
AcDbLayerTableRecord
  2
SUPORT2
 70
     0
 62
     2
  6
CONTINUOUS
  0
LAYER
  5
239C
100
AcDbSymbolTableRecord
100
AcDbLayerTableRecord
  2
EXTLJ
 70
     0
 62
     2
  6
CONTINUOUS
  0
LAYER
  5
239D
100
AcDbSymbolTableRecord
100
AcDbLayerTableRecord
  2
EXSUPORT
 70
     0
 62
     2
  6
CONTINUOUS
  0
LAYER
  5
239E
100
AcDbSymbolTableRecord
100
AcDbLayerTableRecord
  2
点
 70
     0
 62
     1
  6
CONTINUOUS
  0
ENDTAB
  0
TABLE
  2
STYLE
  5
237B
100
AcDbSymbolTable
 70
     2
  0
STYLE
  5
2387
100
AcDbSymbolTableRecord
100
AcDbTextStyleTableRecord
  2
STANDARD
 70
     0
 40
0.0
 41
1.0
 50
0.0
 71
     0
 42
1000.0
  3
txt
  4

  0
STYLE
  5
2394
100
AcDbSymbolTableRecord
100
AcDbTextStyleTableRecord
  2
EXTFONT
 70
     0
 40
0.0
 41
1.0
 50
0.0
 71
     0
 42
700.0
  3
txt.shx
  4
EXTFONT.SHX
  0
ENDTAB
  0
TABLE
  2
VIEW
  5
237E
100
AcDbSymbolTable
 70
     0
  0
ENDTAB
  0
TABLE
  2
UCS
  5
237F
100
AcDbSymbolTable
 70
     0
  0
ENDTAB
  0
TABLE
  2
APPID
  5
2381
100
AcDbSymbolTable
 70
     1
  0
APPID
  5
2388
100
AcDbSymbolTableRecord
100
AcDbRegAppTableRecord
  2
ACAD
 70
     0
  0
ENDTAB
  0
TABLE
  2
DIMSTYLE
  5
2382
100
AcDbSymbolTable
 70
     1
  0
DIMSTYLE
105
2398
100
AcDbSymbolTableRecord
100
AcDbDimStyleTableRecord
  2
STANDARD
 70
     0
  3

  4

  5

  6

  7

 40
1.0
 41
0.18
 42
0.0625
 43
0.38
 44
0.18
 45
0.0
 46
0.0
 47
0.0
 48
0.0
140
0.18
141
0.09
142
0.0
143
25.4
144
1.0
145
0.0
146
1.0
147
0.09
 71
     0
 72
     0
 73
     1
 74
     1
 75
     0
 76
     0
 77
     0
 78
     0
170
     0
171
     2
172
     0
173
     0
174
     0
175
     0
176
     0
177
     0
178
     0
270
     2
271
     2
272
     2
273
     2
274
     2
340
2387
275
     0
280
     0
281
     0
282
     0
283
     1
284
     8
285
     8
286
     8
287
     5
288
     0
  0
ENDTAB
  0
TABLE
  2
BLOCK_RECORD
  5
2379
100
AcDbSymbolTable
 70
     0
  0
BLOCK_RECORD
  5
238F
100
AcDbSymbolTableRecord
100
AcDbBlockTableRecord
  2
*MODEL_SPACE
  0
BLOCK_RECORD
  5
238C
100
AcDbSymbolTableRecord
100
AcDbBlockTableRecord
  2
*PAPER_SPACE
  0
ENDTAB
  0
ENDSEC
  0
SECTION
  2
BLOCKS
  0
BLOCK
  5
23A1
100
AcDbEntity
  8
0
100
AcDbBlockBegin
  2
*MODEL_SPACE
 70
     0
 10
0.0
 20
0.0
 30
0.0
  3
*MODEL_SPACE
  1

  0
ENDBLK
  5
23A2
100
AcDbEntity
  8
0
100
AcDbBlockEnd
  0
BLOCK
  5
239F
100
AcDbEntity
 67
     1
  8
0
100
AcDbBlockBegin
  2
*PAPER_SPACE
 70
     0
 10
0.0
 20
0.0
 30
0.0
  3
*PAPER_SPACE
  1

  0
ENDBLK
  5
23A0
100
AcDbEntity
 67
     1
  8
0
100
AcDbBlockEnd
  0
ENDSEC
  0
SECTION
  2
ENTITIES
  0
LINE
  5
16DD
100
AcDbEntity
  8
LJIB
 62
     5
100
AcDbLine
 10
26373.551169
 20
5967.466548
 30
0.0
 11
26208.335584
 21
5512.473854
 31
0.0
  0
LINE
  5
16DE
100
AcDbEntity
  8
LJIB
 62
     5
100
AcDbLine
 10
26328.15128
 20
5967.466548
 30
0.0
 11
26185.635584
 21
5575.011948
 31
0.0
  0
LINE
  5
16DF
100
AcDbEntity
  8
LJIB
 62
     5
100
AcDbLine
 10
26449.335584
 20
6062.462548
 30
0.0
 11
26199.335584
 21
6062.462548
 31
0.0
  0
LINE
  5
16E0
100
AcDbEntity
  8
LJIB
 62
     5
100
AcDbLine
 10
26199.335584
 20
4962.479548
 30
0.0
 11
26449.335584
 21
4962.479548
 31
0.0
  0
LINE
  5
16E1
100
AcDbEntity
  8
LJIB
 62
     5
100
AcDbLine
 10
26043.135584
 20
5967.462548
 30
0.0
 11
26373.550355
 21
5057.478548
 31
0.0
  0
LINE
  5
16E2
100
AcDbEntity
  8
LJIB
 62
     5
100
AcDbLine
 10
25997.635584
 20
5967.462548
 30
0.0
 11
26328.150907
 21
5057.478548
 31
0.0
  0
LINE
  5
16E3
100
AcDbEntity
  8
LJIB
  6
CENTER
 62
     5
100
AcDbLine
 10
17392.197869
 20
5512.470548
 30
0.0
 11
26768.191294
 21
5512.470548
 31
0.0
  0
LINE
  5
16E4
100
AcDbEntity
  8
LJIB
 62
     5
100
AcDbLine
 10
17715.335584
 20
5057.478548
 30
0.0
 11
26455.335584
 21
5057.478548
 31
0.0
  0
LINE
  5
16E5
100
AcDbEntity
  8
LJIB
 62
     5
100
AcDbLine
 10
26455.335584
 20
5967.466548
 30
0.0
 11
17715.335584
 21
5967.466548
 31
0.0
  0
LINE
  5
16E6
100
AcDbEntity
  8
LJIB
  6
CENTER
 62
     5
100
AcDbLine
 10
715.335584
 20
5112.671235
 30
0.0
 11
715.335584
 21
4837.752235
 31
0.0
  0
ARC
  5
16E7
100
AcDbEntity
  8
LJIB
 62
     5
100
AcDbCircle
 10
715.335584
 20
4982.467235
 30
0.0
 40
75.0007
100
AcDbArc
 50
164.180999
 51
300.567013
  0
ARC
  5
16E8
100
AcDbEntity
  8
LJIB
 62
     5
100
AcDbCircle
 10
715.335584
 20
4982.467235
 30
0.0
 40
116.0
100
AcDbArc
 50
114.464993
 51
350.272993
  0
ARC
  5
16E9
100
AcDbEntity
  8
LJIB
 62
     5
100
AcDbCircle
 10
1085.335584
 20
5462.466635
 30
0.0
 40
458.0
100
AcDbArc
 50
180.00002
 51
300.000014
  0
LINE
  5
16EF
100
AcDbEntity
  8
LJIB
  6
CENTER
 62
     5
100
AcDbLine
 10
8392.197869
 20
5512.470548
 30
0.0
 11
17768.191294
 21
5512.470548
 31
0.0
  0
LINE
  5
16F0
100
AcDbEntity
  8
LJIB
 62
     5
100
AcDbLine
 10
8971.335584
 20
4967.479548
 30
0.0
 11
17199.335584
 21
4967.479548
 31
0.0
  0
LINE
  5
16F1
100
AcDbEntity
  8
LJIB
 62
     5
100
AcDbLine
 10
8715.335584
 20
5057.478548
 30
0.0
 11
17455.335584
 21
5057.478548
 31
0.0
  0
LINE
  5
16F2
100
AcDbEntity
  8
LJIB
 62
     5
100
AcDbLine
 10
17455.335584
 20
5967.466548
 30
0.0
 11
8715.335584
 21
5967.466548
 31
0.0
  0
LINE
  5
16F3
100
AcDbEntity
  8
LJIB
 62
     5
100
AcDbLine
 10
17199.335584
 20
6057.462548
 30
0.0
 11
8971.335584
 21
6057.462548
 31
0.0
  0
LINE
  5
16F4
100
AcDbEntity
  8
LJIB
  6
CENTER
 62
     5
100
AcDbLine
 10
512.035584
 20
5512.470548
 30
0.0
 11
8885.943199
 21
5512.470548
 31
0.0
  0
ARC
  5
16F5
100
AcDbEntity
  8
LJIB
 62
     5
100
AcDbCircle
 10
1220.335584
 20
6012.472235
 30
0.0
 40
32.4961
100
AcDbArc
 50
0.0
 51
180.00002
  0
LINE
  5
16F6
100
AcDbEntity
  8
LJIB
  6
CENTER
 62
     5
100
AcDbLine
 10
741.335584
 20
5362.470235
 30
0.0
 11
1550.135584
 21
5362.470235
 31
0.0
  0
LINE
  5
16F7
100
AcDbEntity
  8
LJIB
 62
     5
100
AcDbLine
 10
1418.735584
 20
5981.657235
 30
0.0
 11
652.535584
 21
5707.111235
 31
0.0
  0
CIRCLE
  5
16F8
100
AcDbEntity
  8
LJIB
  6
CENTER
 62
     5
100
AcDbCircle
 10
1085.335584
 20
5362.470235
 30
0.0
 40
287.0
  0
CIRCLE
  5
16F9
100
AcDbEntity
  8
LJIB
  6
CENTER
 62
     5
100
AcDbCircle
 10
1395.335584
 20
5842.466235
 30
0.0
 40
199.5
  0
LINE
  5
16FA
100
AcDbEntity
  8
LJIB
 62
     5
100
AcDbLine
 10
627.335584
 20
5671.349235
 30
0.0
 11
627.335584
 21
5462.466635
 31
0.0
  0
LINE
  5
16FB
100
AcDbEntity
  8
LJIB
  6
CENTER
 62
     5
100
AcDbLine
 10
1085.335584
 20
5699.910235
 30
0.0
 11
1085.335584
 21
4992.168235
 31
0.0
  0
LINE
  5
16FC
100
AcDbEntity
  8
LJIB
  6
CENTER
 62
     5
100
AcDbLine
 10
564.235584
 20
4982.467235
 30
0.0
 11
852.935584
 21
4982.467235
 31
0.0
  0
CIRCLE
  5
16FD
100
AcDbEntity
  8
LJIB
 62
     5
100
AcDbCircle
 10
715.335584
 20
4982.467235
 30
0.0
 40
35.25
  0
LINE
  5
16FE
100
AcDbEntity
  8
LJIB
 62
     5
100
AcDbLine
 10
643.135584
 20
5002.918235
 30
0.0
 11
702.235584
 21
5211.444235
 31
0.0
  0
LINE
  5
16FF
100
AcDbEntity
  8
LJIB
 62
     5
100
AcDbLine
 10
753.435584
 20
4917.889235
 30
0.0
 11
940.135584
 21
5028.106235
 31
0.0
  0
ARC
  5
1700
100
AcDbEntity
  8
LJIB
 62
     5
100
AcDbCircle
 10
665.335584
 20
5671.349235
 30
0.0
 40
37.9995
100
AcDbArc
 50
109.71099
 51
180.00002
  0
LINE
  5
1701
100
AcDbEntity
  8
LJIB
 62
     5
100
AcDbLine
 10
1187.835584
 20
6012.472235
 30
0.0
 11
1187.835584
 21
5898.931235
 31
0.0
  0
ARC
  5
1702
100
AcDbEntity
  8
LJIB
 62
     5
100
AcDbCircle
 10
1395.335584
 20
5842.466235
 30
0.0
 40
222.5
100
AcDbArc
 50
158.839027
 51
166.115018
  0
LINE
  5
1707
100
AcDbEntity
  8
LJIB
 62
     5
100
AcDbLine
 10
8455.335584
 20
5967.366235
 30
0.0
 11
3181.435584
 21
5761.338235
 31
0.0
  0
LINE
  5
1708
100
AcDbEntity
  8
LJIB
 62
     5
100
AcDbLine
 10
8199.835584
 20
6041.466235
 30
0.0
 11
2073.335584
 21
5781.79007
 31
0.0
  0
LINE
  5
1709
100
AcDbEntity
  8
LJIB
 62
     5
100
AcDbLine
 10
8199.835584
 20
4983.457235
 30
0.0
 11
2073.335584
 21
5243.1334
 31
0.0
  0
LINE
  5
170A
100
AcDbEntity
  8
LJIB
 62
     5
100
AcDbLine
 10
8455.335584
 20
5057.556235
 30
0.0
 11
3181.435584
 21
5263.582235
 31
0.0
  0
LINE
  5
170B
100
AcDbEntity
  8
LJIB
 62
     5
100
AcDbLine
 10
3105.435584
 20
5313.278235
 30
0.0
 11
3174.635584
 21
5461.869535
 31
0.0
  0
LINE
  5
170C
100
AcDbEntity
  8
LJIB
 62
     5
100
AcDbLine
 10
3069.335584
 20
5336.889235
 30
0.0
 11
3151.035584
 21
5512.471064
 31
0.0
  0
LINE
  5
170D
100
AcDbEntity
  8
LJIB
 62
     5
100
AcDbLine
 10
3317.935584
 20
5254.999235
 30
0.0
 11
3105.313348
 21
5711.924843
 31
0.0
  0
LINE
  5
170E
100
AcDbEntity
  8
LJIB
 62
     5
100
AcDbLine
 10
3262.735584
 20
5272.540235
 30
0.0
 11
3069.195623
 21
5688.311403
 31
0.0
  0
LINE
  5
170F
100
AcDbEntity
  8
LJIB
 62
     5
100
AcDbLine
 10
2927.635584
 20
5595.760735
 30
0.0
 11
3282.035584
 21
5827.464235
 31
0.0
  0
LINE
  5
1710
100
AcDbEntity
  8
LJIB
 62
     5
100
AcDbLine
 10
2928.935584
 20
5596.239235
 30
0.0
 11
3282.535584
 21
5827.470235
 31
0.0
  0
LINE
  5
1711
100
AcDbEntity
  8
LJIB
 62
     5
100
AcDbLine
 10
3282.035584
 20
5197.478235
 30
0.0
 11
2927.635584
 21
5429.186035
 31
0.0
  0
LINE
  5
1712
100
AcDbEntity
  8
LJIB
 62
     5
100
AcDbLine
 10
3282.535584
 20
5197.474235
 30
0.0
 11
2928.935584
 21
5428.703235
 31
0.0
  0
LINE
  5
1713
100
AcDbEntity
  8
LJIB
 62
     5
100
AcDbLine
 10
2073.335584
 20
5797.470235
 30
0.0
 11
2073.335584
 21
5244.424235
 31
0.0
  0
LINE
  5
1714
100
AcDbEntity
  8
LJIB
 62
     5
100
AcDbLine
 10
2073.335584
 20
5244.424235
 30
0.0
 11
1661.235584
 21
5275.331235
 31
0.0
  0
ARC
  5
1715
100
AcDbEntity
  8
LJIB
 62
     5
100
AcDbCircle
 10
1671.035584
 20
5149.271235
 30
0.0
 40
49.999
100
AcDbArc
 50
238.761024
 51
342.780022
  0
LINE
  5
1716
100
AcDbEntity
  8
LJIB
 62
     5
100
AcDbLine
 10
1661.235584
 20
5275.348235
 30
0.0
 11
1665.235584
 21
5268.420235
 31
0.0
  0
LINE
  5
1717
100
AcDbEntity
  8
LJIB
 62
     5
100
AcDbLine
 10
1645.135584
 20
5106.511235
 30
0.0
 11
1518.135584
 21
5183.510235
 31
0.0
  0
LINE
  5
1718
100
AcDbEntity
  8
LJIB
 62
     5
100
AcDbLine
 10
1314.335584
 20
5065.823235
 30
0.0
 11
1675.435584
 21
5274.286235
 31
0.0
  0
LINE
  5
1719
100
AcDbEntity
  8
LJIB
 62
     5
100
AcDbLine
 10
1718.735584
 20
5134.466235
 30
0.0
 11
1760.135584
 21
5267.933235
 31
0.0
  0
LINE
  5
171A
100
AcDbEntity
  8
LJIB
  6
CENTER
 62
     5
100
AcDbLine
 10
1591.935584
 20
5962.466235
 30
0.0
 11
1761.435584
 21
5962.466235
 31
0.0
  0
ARC
  5
171B
100
AcDbEntity
  8
LJIB
 62
     5
100
AcDbCircle
 10
1685.335584
 20
5962.466235
 30
0.0
 40
100.0
100
AcDbArc
 50
53.241989
 51
109.796017
  0
CIRCLE
  5
171C
100
AcDbEntity
  8
LJIB
 62
     5
100
AcDbCircle
 10
1685.335584
 20
5962.466235
 30
0.0
 40
49.9999
  0
LINE
  5
171D
100
AcDbEntity
  8
LJIB
  6
CENTER
 62
     5
100
AcDbLine
 10
1685.335584
 20
6037.336886
 30
0.0
 11
1685.335584
 21
5881.103235
 31
0.0
  0
LINE
  5
171E
100
AcDbEntity
  8
LJIB
 62
     5
100
AcDbLine
 10
1418.735584
 20
5981.657235
 30
0.0
 11
1421.437886
 21
5974.117029
 31
0.0
  0
LINE
  5
171F
100
AcDbEntity
  8
LJIB
 62
     5
100
AcDbLine
 10
1651.468332
 20
6056.556666
 30
0.0
 11
1421.437886
 21
5974.117029
 31
0.0
  0
LINE
  5
1720
100
AcDbEntity
  8
LJIB
  6
CENTER
 62
     5
100
AcDbLine
 10
1395.335584
 20
5946.705235
 30
0.0
 11
1395.335584
 21
5728.017235
 31
0.0
  0
LINE
  5
1721
100
AcDbEntity
  8
LJIB
 62
     5
100
AcDbLine
 10
1252.835584
 20
6012.472235
 30
0.0
 11
1252.835584
 21
5922.220235
 31
0.0
  0
LINE
  5
1722
100
AcDbEntity
  8
LJIB
  6
CENTER
 62
     5
100
AcDbLine
 10
1274.835584
 20
5842.466235
 30
0.0
 11
1499.035584
 21
5842.466235
 31
0.0
  0
LINE
  5
1723
100
AcDbEntity
  8
LJIB
 62
     5
100
AcDbLine
 10
1745.135584
 20
6042.580235
 30
0.0
 11
2073.335584
 21
5797.467235
 31
0.0
  0
LINE
  5
1756
100
AcDbEntity
  8
LJIB
 62
     5
100
AcDbLine
 10
3033.935584
 20
5182.703235
 30
0.0
 11
3033.535584
 21
5175.721235
 31
0.0
  0
LINE
  5
1757
100
AcDbEntity
  8
LJIB
 62
     5
100
AcDbLine
 10
3033.535584
 20
5849.221235
 30
0.0
 11
3033.935584
 21
5842.235235
 31
0.0
  0
LINE
  5
1762
100
AcDbEntity
  8
LJIB
 62
     5
100
AcDbLine
 10
3198.135584
 20
5512.470861
 30
0.0
 11
3317.935584
 21
5769.946235
 31
0.0
  0
LINE
  5
1763
100
AcDbEntity
  8
LJIB
 62
     5
100
AcDbLine
 10
3174.635584
 20
5563.072335
 30
0.0
 11
3262.735584
 21
5752.409235
 31
0.0
  0
LINE
  5
1768
100
AcDbEntity
  8
LJIB
 62
     5
100
AcDbLine
 10
3269.435584
 20
5258.048235
 30
0.0
 11
3262.735584
 21
5272.540235
 31
0.0
  0
LINE
  5
176A
100
AcDbEntity
  8
LJIB
 62
     5
100
AcDbLine
 10
3283.535584
 20
5167.002235
 30
0.0
 11
3283.035584
 21
5160.020235
 31
0.0
  0
LINE
  5
176B
100
AcDbEntity
  8
LJIB
 62
     5
100
AcDbLine
 10
3282.535584
 20
5197.474235
 30
0.0
 11
3282.535584
 21
5167.044206
 31
0.0
  0
LINE
  5
176C
100
AcDbEntity
  8
LJIB
 62
     5
100
AcDbLine
 10
3282.035584
 20
5197.474235
 30
0.0
 11
3282.035584
 21
5182.474235
 31
0.0
  0
LINE
  5
176D
100
AcDbEntity
  8
LJIB
 62
     5
100
AcDbLine
 10
3282.535584
 20
5182.474235
 30
0.0
 11
3282.035584
 21
5182.474235
 31
0.0
  0
LINE
  5
176E
100
AcDbEntity
  8
LJIB
 62
     5
100
AcDbLine
 10
3282.535584
 20
5197.474235
 30
0.0
 11
3282.035584
 21
5197.474235
 31
0.0
  0
LINE
  5
1771
100
AcDbEntity
  8
LJIB
 62
     5
100
AcDbLine
 10
3283.035584
 20
5864.922235
 30
0.0
 11
3283.435584
 21
5857.936235
 31
0.0
  0
LINE
  5
1772
100
AcDbEntity
  8
LJIB
 62
     5
100
AcDbLine
 10
3282.535584
 20
5857.879264
 30
0.0
 11
3282.535584
 21
5827.466235
 31
0.0
  0
LINE
  5
1773
100
AcDbEntity
  8
LJIB
 62
     5
100
AcDbLine
 10
3282.035584
 20
5842.466235
 30
0.0
 11
3282.035584
 21
5827.466235
 31
0.0
  0
LINE
  5
1774
100
AcDbEntity
  8
LJIB
 62
     5
100
AcDbLine
 10
3282.035584
 20
5842.466235
 30
0.0
 11
3282.535584
 21
5842.466235
 31
0.0
  0
LINE
  5
1775
100
AcDbEntity
  8
LJIB
 62
     5
100
AcDbLine
 10
3282.035584
 20
5827.466235
 30
0.0
 11
3282.535584
 21
5827.466235
 31
0.0
  0
LINE
  5
1776
100
AcDbEntity
  8
LJIB
 62
     5
100
AcDbLine
 10
3262.735584
 20
5752.409235
 30
0.0
 11
3269.435584
 21
5766.894235
 31
0.0
  0
LINE
  5
1786
100
AcDbEntity
  8
LJIB
 62
     5
100
AcDbLine
 10
8985.135584
 20
5575.004348
 30
0.0
 11
8842.617348
 21
5967.466548
 31
0.0
  0
LINE
  5
1787
100
AcDbEntity
  8
LJIB
 62
     5
100
AcDbLine
 10
8842.618815
 20
5057.478548
 30
0.0
 11
9173.135584
 21
5967.470548
 31
0.0
  0
LINE
  5
1788
100
AcDbEntity
  8
LJIB
 62
     5
100
AcDbLine
 10
8797.219005
 20
5057.478548
 30
0.0
 11
9127.635584
 21
5967.471548
 31
0.0
  0
LINE
  5
179B
100
AcDbEntity
  8
LJIB
 62
     5
100
AcDbLine
 10
8962.435584
 20
5512.46511
 30
0.0
 11
8797.217097
 21
5967.466548
 31
0.0
  0
LINE
  5
179C
100
AcDbEntity
  8
LJIB
 62
     5
100
AcDbLine
 10
8771.735584
 20
5967.466548
 30
0.0
 11
8771.735584
 21
5057.478548
 31
0.0
  0
LINE
  5
179D
100
AcDbEntity
  8
LJIB
 62
     5
100
AcDbLine
 10
8729.035584
 20
5967.466548
 30
0.0
 11
8729.035584
 21
5057.478548
 31
0.0
  0
LINE
  5
179E
100
AcDbEntity
  8
LJIB
  6
CENTER
 62
     5
100
AcDbLine
 10
8585.335584
 20
6107.650548
 30
0.0
 11
8585.335584
 21
4901.615548
 31
0.0
  0
LINE
  5
179F
100
AcDbEntity
  8
LJIB
 62
     5
100
AcDbLine
 10
8244.435584
 20
5512.451095
 30
0.0
 11
8375.112833
 21
5962.317781
 31
0.0
  0
LINE
  5
17A0
100
AcDbEntity
  8
LJIB
 62
     5
100
AcDbLine
 10
8222.135584
 20
5588.975235
 30
0.0
 11
8329.814614
 21
5959.467144
 31
0.0
  0
LINE
  5
17A1
100
AcDbEntity
  8
LJIB
  6
CENTER
 62
     5
100
AcDbLine
 10
8585.335584
 20
6107.650235
 30
0.0
 11
8585.335584
 21
4901.615235
 31
0.0
  0
LINE
  5
17A2
100
AcDbEntity
  8
LJIB
 62
     5
100
AcDbLine
 10
8441.835584
 20
5966.516674
 30
0.0
 11
8441.835584
 21
5063.416235
 31
0.0
  0
LINE
  5
17A3
100
AcDbEntity
  8
LJIB
 62
     5
100
AcDbLine
 10
8399.135584
 20
5963.829543
 30
0.0
 11
8399.135584
 21
5066.103235
 31
0.0
  0
LINE
  5
17A4
100
AcDbEntity
  8
LJIB
 62
     5
100
AcDbLine
 10
8118.435584
 20
5946.155235
 30
0.0
 11
8373.635584
 21
5067.707235
 31
0.0
  0
LINE
  5
17A5
100
AcDbEntity
  8
LJIB
 62
     5
100
AcDbLine
 10
8074.735584
 20
5943.406235
 30
0.0
 11
8328.335584
 21
5070.559235
 31
0.0
  0
LINE
  5
17A6
100
AcDbEntity
  8
LJIB
 62
     5
100
AcDbLine
 10
8455.335584
 20
5064.971235
 30
0.0
 11
8505.335584
 21
5064.971235
 31
0.0
  0
LINE
  5
17A7
100
AcDbEntity
  8
LJIB
 62
     5
100
AcDbLine
 10
8455.335584
 20
4959.971235
 30
0.0
 11
8505.335584
 21
4959.971235
 31
0.0
  0
LINE
  5
17A8
100
AcDbEntity
  8
LJIB
 62
     5
100
AcDbLine
 10
8455.335584
 20
4967.379235
 30
0.0
 11
8449.335584
 21
4967.756235
 31
0.0
  0
LINE
  5
17A9
100
AcDbEntity
  8
LJIB
 62
     5
100
AcDbLine
 10
8449.035584
 20
4962.758235
 30
0.0
 11
8449.335584
 21
4967.752235
 31
0.0
  0
LINE
  5
17AA
100
AcDbEntity
  8
LJIB
 62
     5
100
AcDbLine
 10
8449.035584
 20
5057.949235
 30
0.0
 11
8449.435584
 21
5062.935235
 31
0.0
  0
LINE
  5
17AB
100
AcDbEntity
  8
LJIB
 62
     5
100
AcDbLine
 10
8438.635584
 20
4956.398235
 30
0.0
 11
8439.035584
 21
4963.392235
 31
0.0
  0
LINE
  5
17AC
100
AcDbEntity
  8
LJIB
 62
     5
100
AcDbLine
 10
8312.635584
 20
4922.305235
 30
0.0
 11
8438.635584
 21
4956.399235
 31
0.0
  0
LINE
  5
17AD
100
AcDbEntity
  8
LJIB
 62
     5
100
AcDbLine
 10
8205.535584
 20
5073.275235
 30
0.0
 11
8205.835584
 21
5078.261235
 31
0.0
  0
LINE
  5
17AE
100
AcDbEntity
  8
LJIB
 62
     5
100
AcDbLine
 10
8287.935584
 20
4937.024235
 30
0.0
 11
8279.335584
 21
4973.443235
 31
0.0
  0
LINE
  5
17AF
100
AcDbEntity
  8
LJIB
 62
     5
100
AcDbLine
 10
8449.335584
 20
5062.940235
 30
0.0
 11
8205.835584
 21
5078.265235
 31
0.0
  0
LINE
  5
17B0
100
AcDbEntity
  8
LJIB
 62
     5
100
AcDbLine
 10
8449.035584
 20
4962.761235
 30
0.0
 11
8199.535584
 21
4978.463235
 31
0.0
  0
ARC
  5
17B1
100
AcDbEntity
  8
LJIB
 62
     5
100
AcDbCircle
 10
8307.435584
 20
4941.615235
 30
0.0
 40
19.9984
100
AcDbArc
 50
192.56401
 51
285.149005
  0
LINE
  5
17B2
100
AcDbEntity
  8
LJIB
 62
     5
100
AcDbLine
 10
8118.435584
 20
5078.758235
 30
0.0
 11
8222.135584
 21
5435.927635
 31
0.0
  0
LINE
  5
17B3
100
AcDbEntity
  8
LJIB
 62
     5
100
AcDbLine
 10
8074.735584
 20
5081.501235
 30
0.0
 11
8199.935584
 21
5512.451841
 31
0.0
  0
LINE
  5
17B4
100
AcDbEntity
  8
LJIB
 62
     5
100
AcDbLine
 10
8971.335584
 20
4967.479548
 30
0.0
 11
8971.335584
 21
4962.479548
 31
0.0
  0
LINE
  5
17B5
100
AcDbEntity
  8
LJIB
 62
     5
100
AcDbLine
 10
8665.335584
 20
4959.979548
 30
0.0
 11
8593.935584
 21
4950.078548
 31
0.0
  0
ARC
  5
17B6
100
AcDbEntity
  8
LJIB
 62
     5
100
AcDbCircle
 10
8585.335584
 20
5012.484548
 30
0.0
 40
63.0001
100
AcDbArc
 50
82.097022
 51
277.902903
  0
LINE
  5
17B7
100
AcDbEntity
  8
LJIB
 62
     5
100
AcDbLine
 10
8665.335584
 20
5064.980548
 30
0.0
 11
8593.935584
 21
5074.881548
 31
0.0
  0
LINE
  5
17B8
100
AcDbEntity
  8
LJIB
 62
     5
100
AcDbLine
 10
8721.335584
 20
4967.479548
 30
0.0
 11
8721.335584
 21
4962.479548
 31
0.0
  0
CIRCLE
  5
17B9
100
AcDbEntity
  8
LJIB
 62
     5
100
AcDbCircle
 10
8585.335584
 20
5012.478548
 30
0.0
 40
30.0
  0
LINE
  5
17BA
100
AcDbEntity
  8
LJIB
 62
     5
100
AcDbLine
 10
8665.335584
 20
5064.978548
 30
0.0
 11
8665.335584
 21
4959.979548
 31
0.0
  0
LINE
  5
17BB
100
AcDbEntity
  8
LJIB
 62
     5
100
AcDbLine
 10
8715.335584
 20
5064.978548
 30
0.0
 11
8715.335584
 21
4959.979548
 31
0.0
  0
LINE
  5
17BC
100
AcDbEntity
  8
LJIB
 62
     5
100
AcDbLine
 10
8665.335584
 20
5064.978548
 30
0.0
 11
8715.335584
 21
5064.978548
 31
0.0
  0
LINE
  5
17BD
100
AcDbEntity
  8
LJIB
 62
     5
100
AcDbLine
 10
8665.335584
 20
4959.979548
 30
0.0
 11
8715.335584
 21
4959.979548
 31
0.0
  0
LINE
  5
17BE
100
AcDbEntity
  8
LJIB
 62
     5
100
AcDbLine
 10
8715.335584
 20
4967.479548
 30
0.0
 11
8721.335584
 21
4967.479548
 31
0.0
  0
LINE
  5
17BF
100
AcDbEntity
  8
LJIB
 62
     5
100
AcDbLine
 10
8721.335584
 20
4962.479548
 30
0.0
 11
8971.335584
 21
4962.479548
 31
0.0
  0
ARC
  5
17C0
100
AcDbEntity
  8
LJIB
 62
     5
100
AcDbCircle
 10
8585.335584
 20
5012.469235
 30
0.0
 40
63.0001
100
AcDbArc
 50
262.097022
 51
97.902903
  0
LINE
  5
17C1
100
AcDbEntity
  8
LJIB
 62
     5
100
AcDbLine
 10
8505.335584
 20
4959.981235
 30
0.0
 11
8576.735584
 21
4950.078235
 31
0.0
  0
LINE
  5
17C2
100
AcDbEntity
  8
LJIB
 62
     5
100
AcDbLine
 10
8505.335584
 20
5064.972235
 30
0.0
 11
8576.735584
 21
5074.874235
 31
0.0
  0
LINE
  5
17C3
100
AcDbEntity
  8
LJIB
 62
     5
100
AcDbLine
 10
8505.335584
 20
4959.971235
 30
0.0
 11
8505.335584
 21
5064.971235
 31
0.0
  0
CIRCLE
  5
17C4
100
AcDbEntity
  8
LJIB
 62
     5
100
AcDbCircle
 10
8585.335584
 20
5012.478235
 30
0.0
 40
30.0
  0
LINE
  5
17C5
100
AcDbEntity
  8
LJIB
 62
     5
100
AcDbLine
 10
8452.935584
 20
6064.974235
 30
0.0
 11
8505.335584
 21
6064.974235
 31
0.0
  0
LINE
  5
17C6
100
AcDbEntity
  8
LJIB
 62
     5
100
AcDbLine
 10
8455.335584
 20
5959.974235
 30
0.0
 11
8505.335584
 21
5959.974235
 31
0.0
  0
LINE
  5
17C7
100
AcDbEntity
  8
LJIB
 62
     5
100
AcDbLine
 10
8455.335584
 20
5967.366235
 30
0.0
 11
8455.335584
 21
5959.974235
 31
0.0
  0
LINE
  5
17C8
100
AcDbEntity
  8
LJIB
 62
     5
100
AcDbLine
 10
8405.435584
 20
6184.798235
 30
0.0
 11
8435.435584
 21
6184.798235
 31
0.0
  0
LINE
  5
17C9
100
AcDbEntity
  8
LJIB
 62
     5
100
AcDbLine
 10
8452.935584
 20
6134.802235
 30
0.0
 11
8452.935584
 21
6057.392235
 31
0.0
  0
LINE
  5
17CA
100
AcDbEntity
  8
LJIB
 62
     5
100
AcDbLine
 10
8387.935584
 20
6134.787235
 30
0.0
 11
8387.935584
 21
6058.334235
 31
0.0
  0
LINE
  5
17CB
100
AcDbEntity
  8
LJIB
 62
     5
100
AcDbLine
 10
8387.935584
 20
6134.795235
 30
0.0
 11
8405.435584
 21
6184.793235
 31
0.0
  0
LINE
  5
17CC
100
AcDbEntity
  8
LJIB
 62
     5
100
AcDbLine
 10
8435.435584
 20
6184.795235
 30
0.0
 11
8452.935584
 21
6134.793235
 31
0.0
  0
ARC
  5
17CD
100
AcDbEntity
  8
LJIB
 62
     5
100
AcDbCircle
 10
8420.435584
 20
6104.802235
 30
0.0
 40
34.9995
100
AcDbArc
 50
338.223977
 51
21.775891
  0
ARC
  5
17CE
100
AcDbEntity
  8
LJIB
 62
     5
100
AcDbCircle
 10
8420.435584
 20
6104.802235
 30
0.0
 40
34.9992
100
AcDbArc
 50
158.208028
 51
201.792011
  0
LINE
  5
17CF
100
AcDbEntity
  8
LJIB
 62
     5
100
AcDbLine
 10
8200.935584
 20
6025.525235
 30
0.0
 11
8199.535584
 21
6046.480235
 31
0.0
  0
LINE
  5
17D0
100
AcDbEntity
  8
LJIB
 62
     5
100
AcDbLine
 10
8199.535584
 20
6046.476235
 30
0.0
 11
8452.935584
 21
6062.422661
 31
0.0
  0
LINE
  5
17D1
100
AcDbEntity
  8
LJIB
 62
     5
100
AcDbLine
 10
8971.335584
 20
6062.462548
 30
0.0
 11
8971.335584
 21
6057.462548
 31
0.0
  0
LINE
  5
17D2
100
AcDbEntity
  8
LJIB
 62
     5
100
AcDbLine
 10
8665.335584
 20
5959.970548
 30
0.0
 11
8593.935584
 21
5950.069548
 31
0.0
  0
ARC
  5
17D3
100
AcDbEntity
  8
LJIB
 62
     5
100
AcDbCircle
 10
8585.335584
 20
6012.475548
 30
0.0
 40
63.0001
100
AcDbArc
 50
82.097022
 51
277.902903
  0
LINE
  5
17D4
100
AcDbEntity
  8
LJIB
 62
     5
100
AcDbLine
 10
8665.335584
 20
6064.971548
 30
0.0
 11
8593.935584
 21
6074.872548
 31
0.0
  0
CIRCLE
  5
17D5
100
AcDbEntity
  8
LJIB
 62
     5
100
AcDbCircle
 10
8585.335584
 20
6012.470548
 30
0.0
 40
30.0
  0
LINE
  5
17D6
100
AcDbEntity
  8
LJIB
 62
     5
100
AcDbLine
 10
8665.335584
 20
5959.970548
 30
0.0
 11
8715.335584
 21
5959.970548
 31
0.0
  0
LINE
  5
17D7
100
AcDbEntity
  8
LJIB
 62
     5
100
AcDbLine
 10
8721.335584
 20
5967.466548
 30
0.0
 11
8721.335584
 21
5962.466548
 31
0.0
  0
LINE
  5
17D8
100
AcDbEntity
  8
LJIB
 62
     5
100
AcDbLine
 10
8665.335584
 20
6064.966548
 30
0.0
 11
8665.335584
 21
5959.970548
 31
0.0
  0
LINE
  5
17D9
100
AcDbEntity
  8
LJIB
 62
     5
100
AcDbLine
 10
8715.335584
 20
6064.966548
 30
0.0
 11
8715.335584
 21
5959.970548
 31
0.0
  0
LINE
  5
17DA
100
AcDbEntity
  8
LJIB
 62
     5
100
AcDbLine
 10
8721.335584
 20
6057.462548
 30
0.0
 11
8715.335584
 21
6057.462548
 31
0.0
  0
LINE
  5
17DB
100
AcDbEntity
  8
LJIB
 62
     5
100
AcDbLine
 10
8665.335584
 20
6064.966548
 30
0.0
 11
8715.335584
 21
6064.966548
 31
0.0
  0
LINE
  5
17DC
100
AcDbEntity
  8
LJIB
 62
     5
100
AcDbLine
 10
8721.335584
 20
6062.462548
 30
0.0
 11
8721.335584
 21
6057.462548
 31
0.0
  0
LINE
  5
17DD
100
AcDbEntity
  8
LJIB
 62
     5
100
AcDbLine
 10
8971.335584
 20
6062.462548
 30
0.0
 11
8721.335584
 21
6062.462548
 31
0.0
  0
LINE
  5
17DE
100
AcDbEntity
  8
LJIB
 62
     5
100
AcDbLine
 10
8505.335584
 20
5959.974235
 30
0.0
 11
8576.735584
 21
5950.072235
 31
0.0
  0
LINE
  5
17DF
100
AcDbEntity
  8
LJIB
 62
     5
100
AcDbLine
 10
8505.335584
 20
6064.973235
 30
0.0
 11
8576.735584
 21
6074.875235
 31
0.0
  0
ARC
  5
17E0
100
AcDbEntity
  8
LJIB
 62
     5
100
AcDbCircle
 10
8585.335584
 20
6012.470235
 30
0.0
 40
63.0001
100
AcDbArc
 50
262.097022
 51
97.902903
  0
CIRCLE
  5
17E1
100
AcDbEntity
  8
LJIB
 62
     5
100
AcDbCircle
 10
8585.335584
 20
6012.470235
 30
0.0
 40
30.0
  0
LINE
  5
17EB
100
AcDbEntity
  8
LJIB
 62
     5
100
AcDbLine
 10
9127.735584
 20
5057.467548
 30
0.0
 11
8985.135584
 21
5449.923348
 31
0.0
  0
LINE
  5
17EC
100
AcDbEntity
  8
LJIB
 62
     5
100
AcDbLine
 10
9173.135584
 20
5057.468548
 30
0.0
 11
9007.835584
 21
5512.462552
 31
0.0
  0
LINE
  5
180F
100
AcDbEntity
  8
LJIB
 62
     5
100
AcDbLine
 10
17971.335584
 20
4967.479548
 30
0.0
 11
26199.335584
 21
4967.479548
 31
0.0
  0
LINE
  5
1810
100
AcDbEntity
  8
LJIB
 62
     5
100
AcDbLine
 10
26199.335584
 20
6057.462548
 30
0.0
 11
17971.335584
 21
6057.462548
 31
0.0
  0
ARC
  5
1869
100
AcDbEntity
  8
LJIB
 62
     5
100
AcDbCircle
 10
17585.335584
 20
6012.470548
 30
0.0
 40
63.0001
100
AcDbArc
 50
262.097022
 51
97.902903
  0
CIRCLE
  5
186A
100
AcDbEntity
  8
LJIB
 62
     5
100
AcDbCircle
 10
17585.335584
 20
6012.465548
 30
0.0
 40
30.0
  0
ARC
  5
186B
100
AcDbEntity
  8
LJIB
 62
     5
100
AcDbCircle
 10
17585.335584
 20
5012.472548
 30
0.0
 40
63.0001
100
AcDbArc
 50
262.097022
 51
97.902903
  0
CIRCLE
  5
186C
100
AcDbEntity
  8
LJIB
 62
     5
100
AcDbCircle
 10
17585.335584
 20
5012.473548
 30
0.0
 40
30.0
  0
LINE
  5
186D
100
AcDbEntity
  8
LJIB
 62
     5
100
AcDbLine
 10
17665.335584
 20
5959.970548
 30
0.0
 11
17593.935584
 21
5950.069548
 31
0.0
  0
ARC
  5
186E
100
AcDbEntity
  8
LJIB
 62
     5
100
AcDbCircle
 10
17585.335584
 20
6012.475548
 30
0.0
 40
63.0001
100
AcDbArc
 50
82.097022
 51
277.902903
  0
LINE
  5
186F
100
AcDbEntity
  8
LJIB
 62
     5
100
AcDbLine
 10
17665.335584
 20
6064.971548
 30
0.0
 11
17593.935584
 21
6074.872548
 31
0.0
  0
CIRCLE
  5
1870
100
AcDbEntity
  8
LJIB
 62
     5
100
AcDbCircle
 10
17585.335584
 20
6012.470548
 30
0.0
 40
30.0
  0
LINE
  5
1871
100
AcDbEntity
  8
LJIB
 62
     5
100
AcDbLine
 10
17665.335584
 20
4959.979548
 30
0.0
 11
17593.935584
 21
4950.078548
 31
0.0
  0
ARC
  5
1872
100
AcDbEntity
  8
LJIB
 62
     5
100
AcDbCircle
 10
17585.335584
 20
5012.484548
 30
0.0
 40
63.0001
100
AcDbArc
 50
82.097022
 51
277.902903
  0
LINE
  5
1873
100
AcDbEntity
  8
LJIB
 62
     5
100
AcDbLine
 10
17665.335584
 20
5064.980548
 30
0.0
 11
17593.935584
 21
5074.881548
 31
0.0
  0
CIRCLE
  5
1874
100
AcDbEntity
  8
LJIB
 62
     5
100
AcDbCircle
 10
17585.335584
 20
5012.478548
 30
0.0
 40
30.0
  0
LINE
  5
1875
100
AcDbEntity
  8
LJIB
 62
     5
100
AcDbLine
 10
17373.551169
 20
5967.466548
 30
0.0
 11
17208.335584
 21
5512.473854
 31
0.0
  0
LINE
  5
1876
100
AcDbEntity
  8
LJIB
 62
     5
100
AcDbLine
 10
17328.15128
 20
5967.466548
 30
0.0
 11
17185.635584
 21
5575.011948
 31
0.0
  0
LINE
  5
1877
100
AcDbEntity
  8
LJIB
 62
     5
100
AcDbLine
 10
17441.735584
 20
5057.478548
 30
0.0
 11
17441.735584
 21
5967.466548
 31
0.0
  0
LINE
  5
1878
100
AcDbEntity
  8
LJIB
 62
     5
100
AcDbLine
 10
17399.035584
 20
5057.478548
 30
0.0
 11
17399.035584
 21
5967.466548
 31
0.0
  0
LINE
  5
1879
100
AcDbEntity
  8
LJIB
 62
     5
100
AcDbLine
 10
17043.135584
 20
5967.462548
 30
0.0
 11
17373.550355
 21
5057.478548
 31
0.0
  0
LINE
  5
187A
100
AcDbEntity
  8
LJIB
 62
     5
100
AcDbLine
 10
16997.635584
 20
5967.462548
 30
0.0
 11
17328.150907
 21
5057.478548
 31
0.0
  0
LINE
  5
187B
100
AcDbEntity
  8
LJIB
  6
CENTER
 62
     5
100
AcDbLine
 10
17585.335584
 20
6107.650548
 30
0.0
 11
17585.335584
 21
4901.615548
 31
0.0
  0
LINE
  5
187E
100
AcDbEntity
  8
LJIB
  6
CENTER
 62
     5
100
AcDbLine
 10
17585.335584
 20
6107.650548
 30
0.0
 11
17585.335584
 21
4901.615548
 31
0.0
  0
LINE
  5
187F
100
AcDbEntity
  8
LJIB
 62
     5
100
AcDbLine
 10
17185.635584
 20
5449.932048
 30
0.0
 11
17043.135584
 21
5057.480548
 31
0.0
  0
LINE
  5
1880
100
AcDbEntity
  8
LJIB
 62
     5
100
AcDbLine
 10
17162.935584
 20
5512.473842
 30
0.0
 11
16997.635584
 21
5057.480548
 31
0.0
  0
LINE
  5
1883
100
AcDbEntity
  8
LJIB
 62
     5
100
AcDbLine
 10
17449.335584
 20
4962.479548
 30
0.0
 11
17449.335584
 21
4967.479548
 31
0.0
  0
LINE
  5
1884
100
AcDbEntity
  8
LJIB
 62
     5
100
AcDbLine
 10
17505.335584
 20
4959.979548
 30
0.0
 11
17505.335584
 21
5064.978548
 31
0.0
  0
LINE
  5
1885
100
AcDbEntity
  8
LJIB
 62
     5
100
AcDbLine
 10
17505.335584
 20
4959.977548
 30
0.0
 11
17576.735584
 21
4950.075548
 31
0.0
  0
LINE
  5
1886
100
AcDbEntity
  8
LJIB
 62
     5
100
AcDbLine
 10
17505.335584
 20
5064.972548
 30
0.0
 11
17576.735584
 21
5074.874548
 31
0.0
  0
LINE
  5
1887
100
AcDbEntity
  8
LJIB
 62
     5
100
AcDbLine
 10
17449.335584
 20
4967.479548
 30
0.0
 11
17455.335584
 21
4967.479548
 31
0.0
  0
LINE
  5
1888
100
AcDbEntity
  8
LJIB
 62
     5
100
AcDbLine
 10
17455.335584
 20
4959.979548
 30
0.0
 11
17455.335584
 21
5064.978548
 31
0.0
  0
LINE
  5
1889
100
AcDbEntity
  8
LJIB
 62
     5
100
AcDbLine
 10
17455.335584
 20
5064.978548
 30
0.0
 11
17505.335584
 21
5064.978548
 31
0.0
  0
LINE
  5
188A
100
AcDbEntity
  8
LJIB
 62
     5
100
AcDbLine
 10
17455.335584
 20
4959.979548
 30
0.0
 11
17505.335584
 21
4959.979548
 31
0.0
  0
LINE
  5
188B
100
AcDbEntity
  8
LJIB
 62
     5
100
AcDbLine
 10
17199.335584
 20
4962.479548
 30
0.0
 11
17199.335584
 21
4967.479548
 31
0.0
  0
LINE
  5
188C
100
AcDbEntity
  8
LJIB
 62
     5
100
AcDbLine
 10
17199.335584
 20
4962.479548
 30
0.0
 11
17449.335584
 21
4962.479548
 31
0.0
  0
LINE
  5
188D
100
AcDbEntity
  8
LJIB
 62
     5
100
AcDbLine
 10
17449.335584
 20
6057.462548
 30
0.0
 11
17449.335584
 21
6062.462548
 31
0.0
  0
LINE
  5
188E
100
AcDbEntity
  8
LJIB
 62
     5
100
AcDbLine
 10
17505.335584
 20
6064.975548
 30
0.0
 11
17576.735584
 21
6074.876548
 31
0.0
  0
LINE
  5
188F
100
AcDbEntity
  8
LJIB
 62
     5
100
AcDbLine
 10
17455.335584
 20
6057.462548
 30
0.0
 11
17449.335584
 21
6057.462548
 31
0.0
  0
LINE
  5
1890
100
AcDbEntity
  8
LJIB
 62
     5
100
AcDbLine
 10
17455.335584
 20
6064.966548
 30
0.0
 11
17505.335584
 21
6064.966548
 31
0.0
  0
LINE
  5
1891
100
AcDbEntity
  8
LJIB
 62
     5
100
AcDbLine
 10
17505.335584
 20
5959.974548
 30
0.0
 11
17576.735584
 21
5950.073548
 31
0.0
  0
LINE
  5
1892
100
AcDbEntity
  8
LJIB
 62
     5
100
AcDbLine
 10
17455.335584
 20
5959.970548
 30
0.0
 11
17505.335584
 21
5959.970548
 31
0.0
  0
LINE
  5
1893
100
AcDbEntity
  8
LJIB
 62
     5
100
AcDbLine
 10
17505.335584
 20
5959.970548
 30
0.0
 11
17505.335584
 21
6064.966548
 31
0.0
  0
LINE
  5
1894
100
AcDbEntity
  8
LJIB
 62
     5
100
AcDbLine
 10
17455.335584
 20
5959.970548
 30
0.0
 11
17455.335584
 21
6064.966548
 31
0.0
  0
LINE
  5
1895
100
AcDbEntity
  8
LJIB
 62
     5
100
AcDbLine
 10
17199.335584
 20
6057.462548
 30
0.0
 11
17199.335584
 21
6062.462548
 31
0.0
  0
LINE
  5
1896
100
AcDbEntity
  8
LJIB
 62
     5
100
AcDbLine
 10
17449.335584
 20
6062.462548
 30
0.0
 11
17199.335584
 21
6062.462548
 31
0.0
  0
LINE
  5
1899
100
AcDbEntity
  8
LJIB
 62
     5
100
AcDbLine
 10
17985.135584
 20
5575.004348
 30
0.0
 11
17842.617348
 21
5967.466548
 31
0.0
  0
LINE
  5
189A
100
AcDbEntity
  8
LJIB
 62
     5
100
AcDbLine
 10
17962.435584
 20
5512.46511
 30
0.0
 11
17797.217097
 21
5967.466548
 31
0.0
  0
LINE
  5
189B
100
AcDbEntity
  8
LJIB
 62
     5
100
AcDbLine
 10
17771.735584
 20
5967.466548
 30
0.0
 11
17771.735584
 21
5057.478548
 31
0.0
  0
LINE
  5
189C
100
AcDbEntity
  8
LJIB
 62
     5
100
AcDbLine
 10
17729.035584
 20
5967.466548
 30
0.0
 11
17729.035584
 21
5057.478548
 31
0.0
  0
LINE
  5
189D
100
AcDbEntity
  8
LJIB
 62
     5
100
AcDbLine
 10
17842.618815
 20
5057.478548
 30
0.0
 11
18173.135584
 21
5967.470548
 31
0.0
  0
LINE
  5
189E
100
AcDbEntity
  8
LJIB
 62
     5
100
AcDbLine
 10
17797.219005
 20
5057.478548
 30
0.0
 11
18127.635584
 21
5967.471548
 31
0.0
  0
LINE
  5
18A1
100
AcDbEntity
  8
LJIB
 62
     5
100
AcDbLine
 10
18127.735584
 20
5057.467548
 30
0.0
 11
17985.135584
 21
5449.923348
 31
0.0
  0
LINE
  5
18A2
100
AcDbEntity
  8
LJIB
 62
     5
100
AcDbLine
 10
18173.135584
 20
5057.468548
 30
0.0
 11
18007.835584
 21
5512.462552
 31
0.0
  0
LINE
  5
18A3
100
AcDbEntity
  8
LJIB
 62
     5
100
AcDbLine
 10
17971.335584
 20
4967.479548
 30
0.0
 11
17971.335584
 21
4962.479548
 31
0.0
  0
LINE
  5
18A4
100
AcDbEntity
  8
LJIB
 62
     5
100
AcDbLine
 10
17721.335584
 20
4967.479548
 30
0.0
 11
17721.335584
 21
4962.479548
 31
0.0
  0
LINE
  5
18A5
100
AcDbEntity
  8
LJIB
 62
     5
100
AcDbLine
 10
17665.335584
 20
5064.978548
 30
0.0
 11
17665.335584
 21
4959.979548
 31
0.0
  0
LINE
  5
18A6
100
AcDbEntity
  8
LJIB
 62
     5
100
AcDbLine
 10
17715.335584
 20
5064.978548
 30
0.0
 11
17715.335584
 21
4959.979548
 31
0.0
  0
LINE
  5
18A7
100
AcDbEntity
  8
LJIB
 62
     5
100
AcDbLine
 10
17665.335584
 20
5064.978548
 30
0.0
 11
17715.335584
 21
5064.978548
 31
0.0
  0
LINE
  5
18A8
100
AcDbEntity
  8
LJIB
 62
     5
100
AcDbLine
 10
17665.335584
 20
4959.979548
 30
0.0
 11
17715.335584
 21
4959.979548
 31
0.0
  0
LINE
  5
18A9
100
AcDbEntity
  8
LJIB
 62
     5
100
AcDbLine
 10
17715.335584
 20
4967.479548
 30
0.0
 11
17721.335584
 21
4967.479548
 31
0.0
  0
LINE
  5
18AA
100
AcDbEntity
  8
LJIB
 62
     5
100
AcDbLine
 10
17721.335584
 20
4962.479548
 30
0.0
 11
17971.335584
 21
4962.479548
 31
0.0
  0
LINE
  5
18AD
100
AcDbEntity
  8
LJIB
 62
     5
100
AcDbLine
 10
18035.335584
 20
6063.466548
 30
0.0
 11
18035.335584
 21
6057.462548
 31
0.0
  0
LINE
  5
18AE
100
AcDbEntity
  8
LJIB
 62
     5
100
AcDbLine
 10
17971.335584
 20
6062.462548
 30
0.0
 11
17971.335584
 21
6057.462548
 31
0.0
  0
LINE
  5
18AF
100
AcDbEntity
  8
LJIB
 62
     5
100
AcDbLine
 10
17665.335584
 20
5959.970548
 30
0.0
 11
17715.335584
 21
5959.970548
 31
0.0
  0
LINE
  5
18B0
100
AcDbEntity
  8
LJIB
 62
     5
100
AcDbLine
 10
17721.335584
 20
5967.466548
 30
0.0
 11
17721.335584
 21
5962.466548
 31
0.0
  0
LINE
  5
18B1
100
AcDbEntity
  8
LJIB
 62
     5
100
AcDbLine
 10
17665.335584
 20
6064.966548
 30
0.0
 11
17665.335584
 21
5959.970548
 31
0.0
  0
LINE
  5
18B2
100
AcDbEntity
  8
LJIB
 62
     5
100
AcDbLine
 10
17715.335584
 20
6064.966548
 30
0.0
 11
17715.335584
 21
5959.970548
 31
0.0
  0
LINE
  5
18B3
100
AcDbEntity
  8
LJIB
 62
     5
100
AcDbLine
 10
17685.335584
 20
6118.167548
 30
0.0
 11
17685.335584
 21
6064.971548
 31
0.0
  0
CIRCLE
  5
18B4
100
AcDbEntity
  8
LJIB
 62
     5
100
AcDbCircle
 10
17735.335584
 20
6117.471548
 30
0.0
 40
35.0
  0
ARC
  5
18B5
100
AcDbEntity
  8
LJIB
 62
     5
100
AcDbCircle
 10
17735.335584
 20
6117.471548
 30
0.0
 40
49.9999
100
AcDbArc
 50
70.353774
 51
180.799009
  0
LINE
  5
18B6
100
AcDbEntity
  8
LJIB
 62
     5
100
AcDbLine
 10
17721.335584
 20
6057.462548
 30
0.0
 11
17715.335584
 21
6057.462548
 31
0.0
  0
LINE
  5
18B7
100
AcDbEntity
  8
LJIB
 62
     5
100
AcDbLine
 10
17665.335584
 20
6064.966548
 30
0.0
 11
17715.335584
 21
6064.966548
 31
0.0
  0
LINE
  5
18B8
100
AcDbEntity
  8
LJIB
 62
     5
100
AcDbLine
 10
17721.335584
 20
6062.462548
 30
0.0
 11
17721.335584
 21
6057.462548
 31
0.0
  0
LINE
  5
18B9
100
AcDbEntity
  8
LJIB
 62
     5
100
AcDbLine
 10
17752.235584
 20
6164.563548
 30
0.0
 11
18035.335584
 21
6063.466548
 31
0.0
  0
LINE
  5
18BA
100
AcDbEntity
  8
LJIB
 62
     5
100
AcDbLine
 10
17971.335584
 20
6062.462548
 30
0.0
 11
17721.335584
 21
6062.462548
 31
0.0
  0
LINE
  5
1957
100
AcDbEntity
  8
LJIB
 62
     5
100
AcDbLine
 10
26199.335584
 20
4962.479548
 30
0.0
 11
26199.335584
 21
4967.479548
 31
0.0
  0
LINE
  5
1958
100
AcDbEntity
  8
LJIB
 62
     5
100
AcDbLine
 10
26185.635584
 20
5449.932048
 30
0.0
 11
26043.135584
 21
5057.480548
 31
0.0
  0
LINE
  5
1959
100
AcDbEntity
  8
LJIB
 62
     5
100
AcDbLine
 10
26162.935584
 20
5512.473842
 30
0.0
 11
25997.635584
 21
5057.480548
 31
0.0
  0
LINE
  5
195C
100
AcDbEntity
  8
LJIB
 62
     5
100
AcDbLine
 10
26199.335584
 20
6057.462548
 30
0.0
 11
26199.335584
 21
6062.462548
 31
0.0
  0
LINE
  5
19A8
100
AcDbEntity
  8
LJIB
  6
CENTER
 62
     5
100
AcDbLine
 10
26392.197869
 20
5512.470548
 30
0.0
 11
35768.191294
 21
5512.470548
 31
0.0
  0
LINE
  5
19A9
100
AcDbEntity
  8
LJIB
 62
     5
100
AcDbLine
 10
26971.335584
 20
4967.479548
 30
0.0
 11
35199.335584
 21
4967.479548
 31
0.0
  0
LINE
  5
19AA
100
AcDbEntity
  8
LJIB
 62
     5
100
AcDbLine
 10
26715.335584
 20
5057.478548
 30
0.0
 11
35455.335584
 21
5057.478548
 31
0.0
  0
LINE
  5
19AB
100
AcDbEntity
  8
LJIB
 62
     5
100
AcDbLine
 10
35455.335584
 20
5967.466548
 30
0.0
 11
26715.335584
 21
5967.466548
 31
0.0
  0
LINE
  5
19AC
100
AcDbEntity
  8
LJIB
 62
     5
100
AcDbLine
 10
35199.335584
 20
6057.462548
 30
0.0
 11
26971.335584
 21
6057.462548
 31
0.0
  0
LINE
  5
19BB
100
AcDbEntity
  8
LJIB
 62
     5
100
AcDbLine
 10
26441.735584
 20
5057.478548
 30
0.0
 11
26441.735584
 21
5967.466548
 31
0.0
  0
LINE
  5
19BC
100
AcDbEntity
  8
LJIB
 62
     5
100
AcDbLine
 10
26399.035584
 20
5057.478548
 30
0.0
 11
26399.035584
 21
5967.466548
 31
0.0
  0
LINE
  5
19BD
100
AcDbEntity
  8
LJIB
  6
CENTER
 62
     5
100
AcDbLine
 10
26585.335584
 20
6107.650548
 30
0.0
 11
26585.335584
 21
4901.615548
 31
0.0
  0
LINE
  5
19BE
100
AcDbEntity
  8
LJIB
 62
     5
100
AcDbLine
 10
26985.135584
 20
5575.004348
 30
0.0
 11
26842.617348
 21
5967.466548
 31
0.0
  0
LINE
  5
19BF
100
AcDbEntity
  8
LJIB
 62
     5
100
AcDbLine
 10
26962.435584
 20
5512.46511
 30
0.0
 11
26797.217097
 21
5967.466548
 31
0.0
  0
LINE
  5
19C0
100
AcDbEntity
  8
LJIB
 62
     5
100
AcDbLine
 10
26771.735584
 20
5967.466548
 30
0.0
 11
26771.735584
 21
5057.478548
 31
0.0
  0
LINE
  5
19C1
100
AcDbEntity
  8
LJIB
 62
     5
100
AcDbLine
 10
26729.035584
 20
5967.466548
 30
0.0
 11
26729.035584
 21
5057.478548
 31
0.0
  0
LINE
  5
19C2
100
AcDbEntity
  8
LJIB
 62
     5
100
AcDbLine
 10
26842.618815
 20
5057.478548
 30
0.0
 11
27173.135584
 21
5967.470548
 31
0.0
  0
LINE
  5
19C3
100
AcDbEntity
  8
LJIB
 62
     5
100
AcDbLine
 10
26797.219005
 20
5057.478548
 30
0.0
 11
27127.635584
 21
5967.471548
 31
0.0
  0
LINE
  5
19C4
100
AcDbEntity
  8
LJIB
  6
CENTER
 62
     5
100
AcDbLine
 10
26585.335584
 20
6107.650548
 30
0.0
 11
26585.335584
 21
4901.615548
 31
0.0
  0
LINE
  5
19C5
100
AcDbEntity
  8
LJIB
 62
     5
100
AcDbLine
 10
26721.335584
 20
4962.479548
 30
0.0
 11
26971.335584
 21
4962.479548
 31
0.0
  0
LINE
  5
19C6
100
AcDbEntity
  8
LJIB
 62
     5
100
AcDbLine
 10
26449.335584
 20
4962.479548
 30
0.0
 11
26449.335584
 21
4967.479548
 31
0.0
  0
ARC
  5
19C7
100
AcDbEntity
  8
LJIB
 62
     5
100
AcDbCircle
 10
26585.335584
 20
5012.472548
 30
0.0
 40
63.0001
100
AcDbArc
 50
262.097022
 51
97.902903
  0
LINE
  5
19C8
100
AcDbEntity
  8
LJIB
 62
     5
100
AcDbLine
 10
26505.335584
 20
4959.979548
 30
0.0
 11
26505.335584
 21
5064.978548
 31
0.0
  0
LINE
  5
19C9
100
AcDbEntity
  8
LJIB
 62
     5
100
AcDbLine
 10
26505.335584
 20
4959.977548
 30
0.0
 11
26576.735584
 21
4950.075548
 31
0.0
  0
LINE
  5
19CA
100
AcDbEntity
  8
LJIB
 62
     5
100
AcDbLine
 10
26505.335584
 20
5064.972548
 30
0.0
 11
26576.735584
 21
5074.874548
 31
0.0
  0
CIRCLE
  5
19CB
100
AcDbEntity
  8
LJIB
 62
     5
100
AcDbCircle
 10
26585.335584
 20
5012.473548
 30
0.0
 40
30.0
  0
LINE
  5
19CC
100
AcDbEntity
  8
LJIB
 62
     5
100
AcDbLine
 10
26449.335584
 20
4967.479548
 30
0.0
 11
26455.335584
 21
4967.479548
 31
0.0
  0
LINE
  5
19CD
100
AcDbEntity
  8
LJIB
 62
     5
100
AcDbLine
 10
26455.335584
 20
4959.979548
 30
0.0
 11
26455.335584
 21
5064.978548
 31
0.0
  0
LINE
  5
19CE
100
AcDbEntity
  8
LJIB
 62
     5
100
AcDbLine
 10
26455.335584
 20
5064.978548
 30
0.0
 11
26505.335584
 21
5064.978548
 31
0.0
  0
LINE
  5
19CF
100
AcDbEntity
  8
LJIB
 62
     5
100
AcDbLine
 10
26455.335584
 20
4959.979548
 30
0.0
 11
26505.335584
 21
4959.979548
 31
0.0
  0
LINE
  5
19D0
100
AcDbEntity
  8
LJIB
 62
     5
100
AcDbLine
 10
26665.335584
 20
4959.979548
 30
0.0
 11
26593.935584
 21
4950.078548
 31
0.0
  0
ARC
  5
19D1
100
AcDbEntity
  8
LJIB
 62
     5
100
AcDbCircle
 10
26585.335584
 20
5012.484548
 30
0.0
 40
63.0001
100
AcDbArc
 50
82.097022
 51
277.902903
  0
LINE
  5
19D2
100
AcDbEntity
  8
LJIB
 62
     5
100
AcDbLine
 10
26665.335584
 20
5064.980548
 30
0.0
 11
26593.935584
 21
5074.881548
 31
0.0
  0
LINE
  5
19D3
100
AcDbEntity
  8
LJIB
 62
     5
100
AcDbLine
 10
26721.335584
 20
4967.479548
 30
0.0
 11
26721.335584
 21
4962.479548
 31
0.0
  0
CIRCLE
  5
19D4
100
AcDbEntity
  8
LJIB
 62
     5
100
AcDbCircle
 10
26585.335584
 20
5012.478548
 30
0.0
 40
30.0
  0
LINE
  5
19D5
100
AcDbEntity
  8
LJIB
 62
     5
100
AcDbLine
 10
26665.335584
 20
5064.978548
 30
0.0
 11
26665.335584
 21
4959.979548
 31
0.0
  0
LINE
  5
19D6
100
AcDbEntity
  8
LJIB
 62
     5
100
AcDbLine
 10
26715.335584
 20
5064.978548
 30
0.0
 11
26715.335584
 21
4959.979548
 31
0.0
  0
LINE
  5
19D7
100
AcDbEntity
  8
LJIB
 62
     5
100
AcDbLine
 10
26665.335584
 20
5064.978548
 30
0.0
 11
26715.335584
 21
5064.978548
 31
0.0
  0
LINE
  5
19D8
100
AcDbEntity
  8
LJIB
 62
     5
100
AcDbLine
 10
26665.335584
 20
4959.979548
 30
0.0
 11
26715.335584
 21
4959.979548
 31
0.0
  0
LINE
  5
19D9
100
AcDbEntity
  8
LJIB
 62
     5
100
AcDbLine
 10
26715.335584
 20
4967.479548
 30
0.0
 11
26721.335584
 21
4967.479548
 31
0.0
  0
LINE
  5
19DA
100
AcDbEntity
  8
LJIB
 62
     5
100
AcDbLine
 10
26971.335584
 20
4967.479548
 30
0.0
 11
26971.335584
 21
4962.479548
 31
0.0
  0
LINE
  5
19DB
100
AcDbEntity
  8
LJIB
 62
     5
100
AcDbLine
 10
27173.135584
 20
5057.468548
 30
0.0
 11
27007.835584
 21
5512.462552
 31
0.0
  0
LINE
  5
19DC
100
AcDbEntity
  8
LJIB
 62
     5
100
AcDbLine
 10
27127.735584
 20
5057.467548
 30
0.0
 11
26985.135584
 21
5449.923348
 31
0.0
  0
LINE
  5
19DD
100
AcDbEntity
  8
LJIB
 62
     5
100
AcDbLine
 10
26971.335584
 20
6062.462548
 30
0.0
 11
26721.335584
 21
6062.462548
 31
0.0
  0
LINE
  5
19DE
100
AcDbEntity
  8
LJIB
 62
     5
100
AcDbLine
 10
26449.335584
 20
6057.462548
 30
0.0
 11
26449.335584
 21
6062.462548
 31
0.0
  0
LINE
  5
19DF
100
AcDbEntity
  8
LJIB
 62
     5
100
AcDbLine
 10
26505.335584
 20
6064.975548
 30
0.0
 11
26576.735584
 21
6074.876548
 31
0.0
  0
LINE
  5
19E0
100
AcDbEntity
  8
LJIB
 62
     5
100
AcDbLine
 10
26455.335584
 20
6057.462548
 30
0.0
 11
26449.335584
 21
6057.462548
 31
0.0
  0
LINE
  5
19E1
100
AcDbEntity
  8
LJIB
 62
     5
100
AcDbLine
 10
26455.335584
 20
6064.966548
 30
0.0
 11
26505.335584
 21
6064.966548
 31
0.0
  0
LINE
  5
19E2
100
AcDbEntity
  8
LJIB
 62
     5
100
AcDbLine
 10
26505.335584
 20
5959.974548
 30
0.0
 11
26576.735584
 21
5950.073548
 31
0.0
  0
LINE
  5
19E3
100
AcDbEntity
  8
LJIB
 62
     5
100
AcDbLine
 10
26455.335584
 20
5959.970548
 30
0.0
 11
26505.335584
 21
5959.970548
 31
0.0
  0
ARC
  5
19E4
100
AcDbEntity
  8
LJIB
 62
     5
100
AcDbCircle
 10
26585.335584
 20
6012.470548
 30
0.0
 40
63.0001
100
AcDbArc
 50
262.097022
 51
97.902903
  0
LINE
  5
19E5
100
AcDbEntity
  8
LJIB
 62
     5
100
AcDbLine
 10
26505.335584
 20
5959.970548
 30
0.0
 11
26505.335584
 21
6064.966548
 31
0.0
  0
LINE
  5
19E6
100
AcDbEntity
  8
LJIB
 62
     5
100
AcDbLine
 10
26455.335584
 20
5959.970548
 30
0.0
 11
26455.335584
 21
6064.966548
 31
0.0
  0
CIRCLE
  5
19E7
100
AcDbEntity
  8
LJIB
 62
     5
100
AcDbCircle
 10
26585.335584
 20
6012.465548
 30
0.0
 40
30.0
  0
LINE
  5
19E8
100
AcDbEntity
  8
LJIB
 62
     5
100
AcDbLine
 10
26665.335584
 20
5959.970548
 30
0.0
 11
26593.935584
 21
5950.069548
 31
0.0
  0
ARC
  5
19E9
100
AcDbEntity
  8
LJIB
 62
     5
100
AcDbCircle
 10
26585.335584
 20
6012.475548
 30
0.0
 40
63.0001
100
AcDbArc
 50
82.097022
 51
277.902903
  0
LINE
  5
19EA
100
AcDbEntity
  8
LJIB
 62
     5
100
AcDbLine
 10
26665.335584
 20
6064.971548
 30
0.0
 11
26593.935584
 21
6074.872548
 31
0.0
  0
CIRCLE
  5
19EB
100
AcDbEntity
  8
LJIB
 62
     5
100
AcDbCircle
 10
26585.335584
 20
6012.470548
 30
0.0
 40
30.0
  0
LINE
  5
19EC
100
AcDbEntity
  8
LJIB
 62
     5
100
AcDbLine
 10
26721.335584
 20
6062.462548
 30
0.0
 11
26721.335584
 21
6057.462548
 31
0.0
  0
LINE
  5
19ED
100
AcDbEntity
  8
LJIB
 62
     5
100
AcDbLine
 10
26665.335584
 20
6064.966548
 30
0.0
 11
26715.335584
 21
6064.966548
 31
0.0
  0
LINE
  5
19EE
100
AcDbEntity
  8
LJIB
 62
     5
100
AcDbLine
 10
26721.335584
 20
6057.462548
 30
0.0
 11
26715.335584
 21
6057.462548
 31
0.0
  0
LINE
  5
19EF
100
AcDbEntity
  8
LJIB
 62
     5
100
AcDbLine
 10
26665.335584
 20
5959.970548
 30
0.0
 11
26715.335584
 21
5959.970548
 31
0.0
  0
LINE
  5
19F0
100
AcDbEntity
  8
LJIB
 62
     5
100
AcDbLine
 10
26721.335584
 20
5967.466548
 30
0.0
 11
26721.335584
 21
5962.466548
 31
0.0
  0
LINE
  5
19F1
100
AcDbEntity
  8
LJIB
 62
     5
100
AcDbLine
 10
26665.335584
 20
6064.966548
 30
0.0
 11
26665.335584
 21
5959.970548
 31
0.0
  0
LINE
  5
19F2
100
AcDbEntity
  8
LJIB
 62
     5
100
AcDbLine
 10
26715.335584
 20
6064.966548
 30
0.0
 11
26715.335584
 21
5959.970548
 31
0.0
  0
LINE
  5
19F3
100
AcDbEntity
  8
LJIB
 62
     5
100
AcDbLine
 10
26971.335584
 20
6062.462548
 30
0.0
 11
26971.335584
 21
6057.462548
 31
0.0
  0
LINE
  5
1ACD
100
AcDbEntity
  8
LJIB
  6
CENTER
 62
     5
100
AcDbLine
 10
35357.241952
 20
5512.470548
 30
0.0
 11
41348.987584
 21
5512.470548
 31
0.0
  0
LINE
  5
1AD0
100
AcDbEntity
  8
LJIB
 62
     5
100
AcDbLine
 10
40925.309584
 20
5457.600435
 30
0.0
 11
35715.325584
 21
5057.602235
 31
0.0
  0
LINE
  5
1AD1
100
AcDbEntity
  8
LJIB
 62
     5
100
AcDbLine
 10
40925.309584
 20
5367.339235
 30
0.0
 11
35970.645584
 21
4986.942235
 31
0.0
  0
LINE
  5
1AD2
100
AcDbEntity
  8
LJIB
 62
     5
100
AcDbLine
 10
35715.365584
 20
5967.326235
 30
0.0
 11
40925.309584
 21
5567.331035
 31
0.0
  0
LINE
  5
1AD3
100
AcDbEntity
  8
LJIB
 62
     5
100
AcDbLine
 10
35970.645584
 20
6037.989235
 30
0.0
 11
40925.309584
 21
5657.593235
 31
0.0
  0
LINE
  5
1AD4
100
AcDbEntity
  8
LJIB
 62
     5
100
AcDbLine
 10
35721.755584
 20
6062.113235
 30
0.0
 11
35971.025584
 21
6042.975235
 31
0.0
  0
LINE
  5
1AD5
100
AcDbEntity
  8
LJIB
 62
     5
100
AcDbLine
 10
35936.375584
 20
5512.476583
 30
0.0
 11
35796.628462
 21
5961.08725
 31
0.0
  0
LINE
  5
1AD6
100
AcDbEntity
  8
LJIB
 62
     5
100
AcDbLine
 10
35958.735584
 20
5584.255435
 30
0.0
 11
35842.44815
 21
5957.569428
 31
0.0
  0
LINE
  5
1AD7
100
AcDbEntity
  8
LJIB
 62
     5
100
AcDbLine
 10
35971.025584
 20
4981.959235
 30
0.0
 11
35721.335584
 21
4962.789235
 31
0.0
  0
LINE
  5
1AD8
100
AcDbEntity
  8
LJIB
 62
     5
100
AcDbLine
 10
36069.585584
 20
5940.125235
 30
0.0
 11
35796.619869
 21
5063.84363
 31
0.0
  0
LINE
  5
1AD9
100
AcDbEntity
  8
LJIB
 62
     5
100
AcDbLine
 10
36113.265584
 20
5936.772235
 30
0.0
 11
35842.440138
 21
5067.361496
 31
0.0
  0
LINE
  5
1AE8
100
AcDbEntity
  8
LJIB
 62
     5
100
AcDbLine
 10
35441.735584
 20
5057.478548
 30
0.0
 11
35441.735584
 21
5967.466548
 31
0.0
  0
LINE
  5
1AE9
100
AcDbEntity
  8
LJIB
 62
     5
100
AcDbLine
 10
35399.035584
 20
5057.478548
 30
0.0
 11
35399.035584
 21
5967.466548
 31
0.0
  0
LINE
  5
1AEA
100
AcDbEntity
  8
LJIB
 62
     5
100
AcDbLine
 10
35043.135584
 20
5967.462548
 30
0.0
 11
35373.550355
 21
5057.478548
 31
0.0
  0
LINE
  5
1AEB
100
AcDbEntity
  8
LJIB
 62
     5
100
AcDbLine
 10
34997.635584
 20
5967.462548
 30
0.0
 11
35328.150907
 21
5057.478548
 31
0.0
  0
LINE
  5
1AEC
100
AcDbEntity
  8
LJIB
 62
     5
100
AcDbLine
 10
35373.551169
 20
5967.466548
 30
0.0
 11
35208.335584
 21
5512.473854
 31
0.0
  0
LINE
  5
1AED
100
AcDbEntity
  8
LJIB
 62
     5
100
AcDbLine
 10
35328.15128
 20
5967.466548
 30
0.0
 11
35185.635584
 21
5575.011948
 31
0.0
  0
LINE
  5
1AEE
100
AcDbEntity
  8
LJIB
  6
CENTER
 62
     5
100
AcDbLine
 10
35585.335584
 20
6107.650548
 30
0.0
 11
35585.335584
 21
4901.615548
 31
0.0
  0
LINE
  5
1AEF
100
AcDbEntity
  8
LJIB
  6
CENTER
 62
     5
100
AcDbLine
 10
35585.335584
 20
6107.648235
 30
0.0
 11
35585.335584
 21
4901.608235
 31
0.0
  0
LINE
  5
1AF0
100
AcDbEntity
  8
LJIB
 62
     5
100
AcDbLine
 10
35771.675584
 20
5963.003016
 30
0.0
 11
35771.675584
 21
5061.928524
 31
0.0
  0
LINE
  5
1AF1
100
AcDbEntity
  8
LJIB
 62
     5
100
AcDbLine
 10
35728.985584
 20
5966.280555
 30
0.0
 11
35728.985584
 21
5058.650986
 31
0.0
  0
LINE
  5
1AF2
100
AcDbEntity
  8
LJIB
 62
     5
100
AcDbLine
 10
35199.335584
 20
4962.479548
 30
0.0
 11
35449.335584
 21
4962.479548
 31
0.0
  0
LINE
  5
1AF3
100
AcDbEntity
  8
LJIB
 62
     5
100
AcDbLine
 10
35199.335584
 20
4962.479548
 30
0.0
 11
35199.335584
 21
4967.479548
 31
0.0
  0
LINE
  5
1AF4
100
AcDbEntity
  8
LJIB
 62
     5
100
AcDbLine
 10
35162.935584
 20
5512.473842
 30
0.0
 11
34997.635584
 21
5057.480548
 31
0.0
  0
LINE
  5
1AF5
100
AcDbEntity
  8
LJIB
 62
     5
100
AcDbLine
 10
35185.635584
 20
5449.932048
 30
0.0
 11
35043.135584
 21
5057.480548
 31
0.0
  0
LINE
  5
1AF6
100
AcDbEntity
  8
LJIB
 62
     5
100
AcDbLine
 10
35449.335584
 20
4962.479548
 30
0.0
 11
35449.335584
 21
4967.479548
 31
0.0
  0
ARC
  5
1AF7
100
AcDbEntity
  8
LJIB
 62
     5
100
AcDbCircle
 10
35585.335584
 20
5012.472548
 30
0.0
 40
63.0001
100
AcDbArc
 50
262.097022
 51
97.902903
  0
LINE
  5
1AF8
100
AcDbEntity
  8
LJIB
 62
     5
100
AcDbLine
 10
35505.335584
 20
4959.979548
 30
0.0
 11
35505.335584
 21
5064.978548
 31
0.0
  0
LINE
  5
1AF9
100
AcDbEntity
  8
LJIB
 62
     5
100
AcDbLine
 10
35505.335584
 20
4959.977548
 30
0.0
 11
35576.735584
 21
4950.075548
 31
0.0
  0
LINE
  5
1AFA
100
AcDbEntity
  8
LJIB
 62
     5
100
AcDbLine
 10
35505.335584
 20
5064.972548
 30
0.0
 11
35576.735584
 21
5074.874548
 31
0.0
  0
CIRCLE
  5
1AFB
100
AcDbEntity
  8
LJIB
 62
     5
100
AcDbCircle
 10
35585.335584
 20
5012.473548
 30
0.0
 40
30.0
  0
LINE
  5
1AFC
100
AcDbEntity
  8
LJIB
 62
     5
100
AcDbLine
 10
35449.335584
 20
4967.479548
 30
0.0
 11
35455.335584
 21
4967.479548
 31
0.0
  0
LINE
  5
1AFD
100
AcDbEntity
  8
LJIB
 62
     5
100
AcDbLine
 10
35455.335584
 20
4959.979548
 30
0.0
 11
35455.335584
 21
5064.978548
 31
0.0
  0
LINE
  5
1AFE
100
AcDbEntity
  8
LJIB
 62
     5
100
AcDbLine
 10
35455.335584
 20
5064.978548
 30
0.0
 11
35505.335584
 21
5064.978548
 31
0.0
  0
LINE
  5
1AFF
100
AcDbEntity
  8
LJIB
 62
     5
100
AcDbLine
 10
35455.335584
 20
4959.979548
 30
0.0
 11
35505.335584
 21
4959.979548
 31
0.0
  0
LINE
  5
1B00
100
AcDbEntity
  8
LJIB
 62
     5
100
AcDbLine
 10
35721.335584
 20
4967.803471
 30
0.0
 11
35721.335584
 21
4967.802235
 31
0.0
  0
CIRCLE
  5
1B01
100
AcDbEntity
  8
LJIB
 62
     5
100
AcDbCircle
 10
35585.335584
 20
5012.472235
 30
0.0
 40
30.0
  0
ARC
  5
1B02
100
AcDbEntity
  8
LJIB
 62
     5
100
AcDbCircle
 10
35585.305584
 20
5012.468235
 30
0.0
 40
62.9999
100
AcDbArc
 50
82.098014
 51
277.902004
  0
LINE
  5
1B03
100
AcDbEntity
  8
LJIB
 62
     5
100
AcDbLine
 10
35665.325584
 20
4959.972235
 30
0.0
 11
35593.985584
 21
4950.071235
 31
0.0
  0
LINE
  5
1B04
100
AcDbEntity
  8
LJIB
 62
     5
100
AcDbLine
 10
35665.315584
 20
5064.973235
 30
0.0
 11
35593.975584
 21
5074.874235
 31
0.0
  0
LINE
  5
1B05
100
AcDbEntity
  8
LJIB
 62
     5
100
AcDbLine
 10
35715.325584
 20
5064.972235
 30
0.0
 11
35715.325584
 21
4959.972235
 31
0.0
  0
LINE
  5
1B06
100
AcDbEntity
  8
LJIB
 62
     5
100
AcDbLine
 10
35721.375584
 20
4967.804235
 30
0.0
 11
35715.375584
 21
4967.343235
 31
0.0
  0
LINE
  5
1B07
100
AcDbEntity
  8
LJIB
 62
     5
100
AcDbLine
 10
35721.365584
 20
4967.804235
 30
0.0
 11
35721.755584
 21
4962.819235
 31
0.0
  0
LINE
  5
1B08
100
AcDbEntity
  8
LJIB
 62
     5
100
AcDbLine
 10
35665.325584
 20
5064.972235
 30
0.0
 11
35665.325584
 21
4959.972235
 31
0.0
  0
LINE
  5
1B09
100
AcDbEntity
  8
LJIB
 62
     5
100
AcDbLine
 10
35665.325584
 20
5064.972235
 30
0.0
 11
35715.325584
 21
5064.972235
 31
0.0
  0
LINE
  5
1B0A
100
AcDbEntity
  8
LJIB
 62
     5
100
AcDbLine
 10
35665.325584
 20
4959.972235
 30
0.0
 11
35715.325584
 21
4959.972235
 31
0.0
  0
LINE
  5
1B0B
100
AcDbEntity
  8
LJIB
 62
     5
100
AcDbLine
 10
35449.335584
 20
6062.462548
 30
0.0
 11
35199.335584
 21
6062.462548
 31
0.0
  0
LINE
  5
1B0C
100
AcDbEntity
  8
LJIB
 62
     5
100
AcDbLine
 10
35199.335584
 20
6057.462548
 30
0.0
 11
35199.335584
 21
6062.462548
 31
0.0
  0
LINE
  5
1B0D
100
AcDbEntity
  8
LJIB
 62
     5
100
AcDbLine
 10
35449.335584
 20
6057.462548
 30
0.0
 11
35449.335584
 21
6062.462548
 31
0.0
  0
LINE
  5
1B0E
100
AcDbEntity
  8
LJIB
 62
     5
100
AcDbLine
 10
35505.335584
 20
6064.975548
 30
0.0
 11
35576.735584
 21
6074.876548
 31
0.0
  0
LINE
  5
1B0F
100
AcDbEntity
  8
LJIB
 62
     5
100
AcDbLine
 10
35455.335584
 20
6057.462548
 30
0.0
 11
35449.335584
 21
6057.462548
 31
0.0
  0
LINE
  5
1B10
100
AcDbEntity
  8
LJIB
 62
     5
100
AcDbLine
 10
35455.335584
 20
6064.966548
 30
0.0
 11
35505.335584
 21
6064.966548
 31
0.0
  0
LINE
  5
1B11
100
AcDbEntity
  8
LJIB
 62
     5
100
AcDbLine
 10
35505.335584
 20
5959.974548
 30
0.0
 11
35576.735584
 21
5950.073548
 31
0.0
  0
LINE
  5
1B12
100
AcDbEntity
  8
LJIB
 62
     5
100
AcDbLine
 10
35455.335584
 20
5959.970548
 30
0.0
 11
35505.335584
 21
5959.970548
 31
0.0
  0
ARC
  5
1B13
100
AcDbEntity
  8
LJIB
 62
     5
100
AcDbCircle
 10
35585.335584
 20
6012.470548
 30
0.0
 40
63.0001
100
AcDbArc
 50
262.097022
 51
97.902903
  0
LINE
  5
1B14
100
AcDbEntity
  8
LJIB
 62
     5
100
AcDbLine
 10
35505.335584
 20
5959.970548
 30
0.0
 11
35505.335584
 21
6064.966548
 31
0.0
  0
LINE
  5
1B15
100
AcDbEntity
  8
LJIB
 62
     5
100
AcDbLine
 10
35455.335584
 20
5959.970548
 30
0.0
 11
35455.335584
 21
6064.966548
 31
0.0
  0
CIRCLE
  5
1B16
100
AcDbEntity
  8
LJIB
 62
     5
100
AcDbCircle
 10
35585.335584
 20
6012.465548
 30
0.0
 40
30.0
  0
ARC
  5
1B17
100
AcDbEntity
  8
LJIB
 62
     5
100
AcDbCircle
 10
35730.375584
 20
6119.965235
 30
0.0
 40
29.9999
100
AcDbArc
 50
18.896014
 51
90.038197
  0
LINE
  5
1B18
100
AcDbEntity
  8
LJIB
 62
     5
100
AcDbLine
 10
35701.905584
 20
6129.456235
 30
0.0
 11
35680.355584
 21
6064.954235
 31
0.0
  0
LINE
  5
1B19
100
AcDbEntity
  8
LJIB
 62
     5
100
AcDbLine
 10
35758.758726
 20
6129.68075
 30
0.0
 11
35780.365584
 21
6057.617235
 31
0.0
  0
LINE
  5
1B1A
100
AcDbEntity
  8
LJIB
 62
     5
100
AcDbLine
 10
35721.755584
 20
6062.113235
 30
0.0
 11
35721.365584
 21
6057.127235
 31
0.0
  0
LINE
  5
1B1B
100
AcDbEntity
  8
LJIB
 62
     5
100
AcDbLine
 10
35721.725584
 20
6064.965235
 30
0.0
 11
35721.725584
 21
6062.117235
 31
0.0
  0
ARC
  5
1B1C
100
AcDbEntity
  8
LJIB
 62
     5
100
AcDbCircle
 10
35730.335584
 20
6119.965235
 30
0.0
 40
29.9999
100
AcDbArc
 50
89.961803
 51
161.103986
  0
CIRCLE
  5
1B1D
100
AcDbEntity
  8
LJIB
 62
     5
100
AcDbCircle
 10
35730.355584
 20
6119.944235
 30
0.0
 40
17.5
  0
LINE
  5
1B1E
100
AcDbEntity
  8
LJIB
 62
     5
100
AcDbLine
 10
35665.315584
 20
6064.966235
 30
0.0
 11
35593.975584
 21
6074.867235
 31
0.0
  0
LINE
  5
1B1F
100
AcDbEntity
  8
LJIB
 62
     5
100
AcDbLine
 10
35665.325584
 20
6064.965235
 30
0.0
 11
35721.725584
 21
6064.965235
 31
0.0
  0
LINE
  5
1B20
100
AcDbEntity
  8
LJIB
 62
     5
100
AcDbLine
 10
35665.325584
 20
5959.965235
 30
0.0
 11
35593.985584
 21
5950.064235
 31
0.0
  0
LINE
  5
1B21
100
AcDbEntity
  8
LJIB
 62
     5
100
AcDbLine
 10
35665.325584
 20
5959.965235
 30
0.0
 11
35715.325584
 21
5959.965235
 31
0.0
  0
ARC
  5
1B22
100
AcDbEntity
  8
LJIB
 62
     5
100
AcDbCircle
 10
35585.305584
 20
6012.461235
 30
0.0
 40
62.9999
100
AcDbArc
 50
82.098014
 51
277.902004
  0
CIRCLE
  5
1B23
100
AcDbEntity
  8
LJIB
 62
     5
100
AcDbCircle
 10
35585.335584
 20
6012.465235
 30
0.0
 40
30.0
  0
LINE
  5
1B24
100
AcDbEntity
  8
LJIB
 62
     5
100
AcDbLine
 10
35665.325584
 20
6064.965235
 30
0.0
 11
35665.325584
 21
5959.965235
 31
0.0
  0
LINE
  5
1B25
100
AcDbEntity
  8
LJIB
 62
     5
100
AcDbLine
 10
35715.325584
 20
6064.965235
 30
0.0
 11
35715.325584
 21
5959.965235
 31
0.0
  0
LINE
  5
1B30
100
AcDbEntity
  8
LJIB
 62
     5
100
AcDbLine
 10
35970.622627
 20
4987.199427
 30
0.0
 11
35971.025584
 21
4981.959235
 31
0.0
  0
LINE
  5
1B31
100
AcDbEntity
  8
LJIB
 62
     5
100
AcDbLine
 10
36138.185584
 20
5090.053235
 30
0.0
 11
36138.185584
 21
5090.056235
 31
0.0
  0
LINE
  5
1B32
100
AcDbEntity
  8
LJIB
 62
     5
100
AcDbLine
 10
36113.275584
 20
5088.157235
 30
0.0
 11
35981.095584
 21
5512.476616
 31
0.0
  0
LINE
  5
1B34
100
AcDbEntity
  8
LJIB
 62
     5
100
AcDbLine
 10
36069.595584
 20
5084.801235
 30
0.0
 11
35958.735584
 21
5440.688435
 31
0.0
  0
LINE
  5
1B38
100
AcDbEntity
  8
LJIB
 62
     5
100
AcDbLine
 10
35962.745584
 20
5948.334235
 30
0.0
 11
35962.355584
 21
5943.349235
 31
0.0
  0
LINE
  5
1B39
100
AcDbEntity
  8
LJIB
 62
     5
100
AcDbLine
 10
35971.025584
 20
6042.975235
 30
0.0
 11
35969.415584
 21
6022.037235
 31
0.0
  0
LINE
  5
1B65
100
AcDbEntity
  8
LJIB
 62
     5
100
AcDbLine
 10
39473.325584
 20
5898.932235
 30
0.0
 11
40372.027584
 21
6286.197235
 31
0.0
  0
LINE
  5
1B66
100
AcDbEntity
  8
LJIB
 62
     5
100
AcDbLine
 10
39532.635584
 20
5826.486235
 30
0.0
 11
40407.644584
 21
6203.544235
 31
0.0
  0
ARC
  5
1B79
100
AcDbEntity
  8
LJIB
 62
     5
100
AcDbCircle
 10
39160.325584
 20
5512.466886
 30
0.0
 40
99.9999
100
AcDbArc
 50
306.398004
 51
53.602207
  0
LINE
  5
1B7A
100
AcDbEntity
  8
LJIB
 62
     5
100
AcDbLine
 10
39055.215584
 20
5710.904235
 30
0.0
 11
39137.075584
 21
5557.751235
 31
0.0
  0
LINE
  5
1B7D
100
AcDbEntity
  8
LJIB
 62
     5
100
AcDbLine
 10
39004.735584
 20
5714.779235
 30
0.0
 11
39112.865584
 21
5512.457084
 31
0.0
  0
LINE
  5
1B7F
100
AcDbEntity
  8
LJIB
 62
     5
100
AcDbLine
 10
39208.665584
 20
5601.076335
 30
0.0
 11
39055.225584
 21
5314.011235
 31
0.0
  0
LINE
  5
1B80
100
AcDbEntity
  8
LJIB
 62
     5
100
AcDbLine
 10
39173.935584
 20
5626.677235
 30
0.0
 11
39004.745584
 21
5310.134235
 31
0.0
  0
LINE
  5
1B81
100
AcDbEntity
  8
LJIB
 62
     5
100
AcDbLine
 10
39219.685584
 20
5431.959235
 30
0.0
 11
39075.335584
 21
5325.548235
 31
0.0
  0
LINE
  5
1B82
100
AcDbEntity
  8
LJIB
 62
     5
100
AcDbLine
 10
39161.285584
 20
5512.457646
 30
0.0
 11
39208.645584
 21
5423.844535
 31
0.0
  0
LINE
  5
1B83
100
AcDbEntity
  8
LJIB
 62
     5
100
AcDbLine
 10
39137.075584
 20
5467.172135
 30
0.0
 11
39173.915584
 21
5398.242235
 31
0.0
  0
LINE
  5
1B84
100
AcDbEntity
  8
LJIB
 62
     5
100
AcDbLine
 10
39075.325584
 20
5325.568235
 30
0.0
 11
39075.325584
 21
5315.570235
 31
0.0
  0
LINE
  5
1B86
100
AcDbEntity
  8
LJIB
 62
     5
100
AcDbLine
 10
39219.685584
 20
5592.943535
 30
0.0
 11
39075.345584
 21
5699.353235
 31
0.0
  0
LINE
  5
1B87
100
AcDbEntity
  8
LJIB
 62
     5
100
AcDbLine
 10
39075.325584
 20
5709.368235
 30
0.0
 11
39075.325584
 21
5699.368235
 31
0.0
  0
LINE
  5
1B88
100
AcDbEntity
  8
LJIB
 62
     5
100
AcDbLine
 10
39534.715584
 20
5853.606235
 30
0.0
 11
39527.900837
 21
5764.879763
 31
0.0
  0
LINE
  5
1B89
100
AcDbEntity
  8
LJIB
 62
     5
100
AcDbLine
 10
39468.295584
 20
5896.539235
 30
0.0
 11
39310.785584
 21
5810.613235
 31
0.0
  0
LINE
  5
1B8A
100
AcDbEntity
  8
LJIB
 62
     5
100
AcDbLine
 10
39310.775584
 20
5810.627235
 30
0.0
 11
39308.571273
 21
5781.718864
 31
0.0
  0
ARC
  5
1B8B
100
AcDbEntity
  8
LJIB
 62
     5
100
AcDbCircle
 10
39489.835584
 20
5857.068235
 30
0.0
 40
45.0
100
AcDbArc
 50
355.60998
 51
118.351022
  0
CIRCLE
  5
1B8C
100
AcDbEntity
  8
LJIB
 62
     5
100
AcDbCircle
 10
39489.835584
 20
5857.062235
 30
0.0
 40
27.5
  0
LINE
  5
1B8D
100
AcDbEntity
  8
LJIB
  6
CENTER
 62
     5
100
AcDbLine
 10
40539.508584
 20
6254.923235
 30
0.0
 11
40743.793584
 21
6342.953235
 31
0.0
  0
LINE
  5
1B8E
100
AcDbEntity
  8
LJIB
 62
     5
100
AcDbLine
 10
40501.867584
 20
6363.924235
 30
0.0
 11
40553.313584
 21
6244.538235
 31
0.0
  0
LINE
  5
1B8F
100
AcDbEntity
  8
LJIB
 62
     5
100
AcDbLine
 10
40366.091584
 20
6299.972235
 30
0.0
 11
40413.579584
 21
6189.771235
 31
0.0
  0
LINE
  5
1B90
100
AcDbEntity
  8
LJIB
 62
     5
100
AcDbLine
 10
40456.173584
 20
6343.618235
 30
0.0
 11
40507.395584
 21
6224.751235
 31
0.0
  0
LINE
  5
1B91
100
AcDbEntity
  8
LJIB
 62
     5
100
AcDbLine
 10
40672.121584
 20
5480.322635
 30
0.0
 11
40608.621478
 21
5433.286603
 31
0.0
  0
LINE
  5
1B92
100
AcDbEntity
  8
LJIB
 62
     5
100
AcDbLine
 10
40672.124584
 20
5544.607435
 30
0.0
 11
40608.622644
 21
5591.644781
 31
0.0
  0
LINE
  5
1B93
100
AcDbEntity
  8
LJIB
 62
     5
100
AcDbLine
 10
40585.541584
 20
5693.708235
 30
0.0
 11
40685.248584
 21
5686.053235
 31
0.0
  0
ARC
  5
1B94
100
AcDbEntity
  8
LJIB
 62
     5
100
AcDbCircle
 10
40633.846584
 20
5735.134235
 30
0.0
 40
29.9999
100
AcDbArc
 50
12.484808
 51
175.200009
  0
LINE
  5
1B95
100
AcDbEntity
  8
LJIB
 62
     5
100
AcDbLine
 10
40508.716072
 20
6174.205578
 30
0.0
 11
40663.137087
 21
5741.619635
 31
0.0
  0
LINE
  5
1B96
100
AcDbEntity
  8
LJIB
 62
     5
100
AcDbLine
 10
40487.048584
 20
6221.430235
 30
0.0
 11
40503.432584
 21
6183.408235
 31
0.0
  0
LINE
  5
1B97
100
AcDbEntity
  8
LJIB
 62
     5
100
AcDbLine
 10
40507.395584
 20
6224.751235
 30
0.0
 11
40553.313584
 21
6244.538235
 31
0.0
  0
LINE
  5
1B98
100
AcDbEntity
  8
LJIB
 62
     5
100
AcDbLine
 10
40431.946584
 20
6197.686235
 30
0.0
 11
40459.648584
 21
6133.400235
 31
0.0
  0
LINE
  5
1B99
100
AcDbEntity
  8
LJIB
 62
     5
100
AcDbLine
 10
40413.579584
 20
6189.771235
 30
0.0
 11
40505.415584
 21
6229.345235
 31
0.0
  0
ARC
  5
1B9A
100
AcDbEntity
  8
LJIB
 62
     5
100
AcDbCircle
 10
40480.467584
 20
6164.105235
 30
0.0
 40
29.9999
100
AcDbArc
 50
19.674683
 51
199.674015
  0
LINE
  5
1B9B
100
AcDbEntity
  8
LJIB
 62
     5
100
AcDbLine
 10
40603.958584
 20
5737.642235
 30
0.0
 11
40600.497584
 21
5692.560235
 31
0.0
  0
LINE
  5
1B9C
100
AcDbEntity
  8
LJIB
 62
     5
100
AcDbLine
 10
40585.541584
 20
5693.708235
 30
0.0
 11
40584.775584
 21
5683.738235
 31
0.0
  0
LINE
  5
1B9D
100
AcDbEntity
  8
LJIB
 62
     5
100
AcDbLine
 10
40452.218978
 20
6154.005221
 30
0.0
 11
40603.451187
 21
5731.033029
 31
0.0
  0
ARC
  5
1B9E
100
AcDbEntity
  8
LJIB
 62
     5
100
AcDbCircle
 10
41085.305584
 20
5512.471235
 30
0.0
 40
80.0
100
AcDbArc
 50
89.629793
 51
270.000001
  0
LINE
  5
1B9F
100
AcDbEntity
  8
LJIB
  6
CENTER
 62
     5
100
AcDbLine
 10
41085.307049
 20
5672.236235
 30
0.0
 11
41085.307049
 21
5340.245235
 31
0.0
  0
LINE
  5
1BA0
100
AcDbEntity
  8
LJIB
  6
CENTER
 62
     5
100
AcDbLine
 10
41210.307584
 20
5752.870235
 30
0.0
 11
41210.307584
 21
5335.315235
 31
0.0
  0
LINE
  5
1BA1
100
AcDbEntity
  8
LJIB
 62
     5
100
AcDbLine
 10
41260.307584
 20
5592.466435
 30
0.0
 11
41260.307584
 21
5432.472835
 31
0.0
  0
LINE
  5
1BA2
100
AcDbEntity
  8
LJIB
 62
     5
100
AcDbLine
 10
41135.307684
 20
5587.465235
 30
0.0
 11
41140.307684
 21
5592.465135
 31
0.0
  0
ARC
  5
1BA3
100
AcDbEntity
  8
LJIB
 62
     5
100
AcDbCircle
 10
41280.305584
 20
5539.971135
 30
0.0
 40
43.0
100
AcDbArc
 50
0.0
 51
89.999981
  0
LINE
  5
1BA4
100
AcDbEntity
  8
LJIB
 62
     5
100
AcDbLine
 10
40925.311584
 20
5672.466235
 30
0.0
 11
40925.311584
 21
5352.472235
 31
0.0
  0
LINE
  5
1BA5
100
AcDbEntity
  8
LJIB
 62
     5
100
AcDbLine
 10
41085.307049
 20
5432.472235
 30
0.0
 11
41260.307584
 21
5432.472235
 31
0.0
  0
LINE
  5
1BA6
100
AcDbEntity
  8
LJIB
 62
     5
100
AcDbLine
 10
41085.307049
 20
5382.472235
 30
0.0
 11
41265.306584
 21
5382.472235
 31
0.0
  0
LINE
  5
1BA7
100
AcDbEntity
  8
LJIB
 62
     5
100
AcDbLine
 10
41085.31307
 20
5382.464235
 30
0.0
 11
40945.313584
 21
5352.462235
 31
0.0
  0
ARC
  5
1BA8
100
AcDbEntity
  8
LJIB
 62
     5
100
AcDbCircle
 10
40648.308584
 20
5512.466886
 30
0.0
 40
39.9999
100
AcDbArc
 50
306.905989
 51
53.471916
  0
LINE
  5
1BA9
100
AcDbEntity
  8
LJIB
 62
     5
100
AcDbLine
 10
40945.311584
 20
5352.472235
 30
0.0
 11
40925.311584
 21
5352.472235
 31
0.0
  0
LINE
  5
1BAA
100
AcDbEntity
  8
LJIB
 62
     5
100
AcDbLine
 10
41310.307584
 20
5539.971035
 30
0.0
 11
41310.307584
 21
5484.971235
 31
0.0
  0
LINE
  5
1BAB
100
AcDbEntity
  8
LJIB
 62
     5
100
AcDbLine
 10
41323.307584
 20
5539.971035
 30
0.0
 11
41323.307584
 21
5484.971135
 31
0.0
  0
ARC
  5
1BAC
100
AcDbEntity
  8
LJIB
 62
     5
100
AcDbCircle
 10
41085.30534
 20
5512.471235
 30
0.0
 40
79.9999
100
AcDbArc
 50
308.681986
 51
51.317824
  0
LINE
  5
1BAD
100
AcDbEntity
  8
LJIB
 62
     5
100
AcDbLine
 10
41280.306584
 20
5454.970835
 30
0.0
 11
41260.307584
 21
5454.970835
 31
0.0
  0
LINE
  5
1BAE
100
AcDbEntity
  8
LJIB
 62
     5
100
AcDbLine
 10
41280.306584
 20
5441.971035
 30
0.0
 11
41260.307584
 21
5441.971035
 31
0.0
  0
LINE
  5
1BAF
100
AcDbEntity
  8
LJIB
 62
     5
100
AcDbLine
 10
41265.306584
 20
5427.471835
 30
0.0
 11
41265.306584
 21
5382.472235
 31
0.0
  0
LINE
  5
1BB0
100
AcDbEntity
  8
LJIB
 62
     5
100
AcDbLine
 10
41135.307184
 20
5450.021235
 30
0.0
 11
41135.307184
 21
5437.472835
 31
0.0
  0
LINE
  5
1BB1
100
AcDbEntity
  8
LJIB
 62
     5
100
AcDbLine
 10
41135.307884
 20
5437.471435
 30
0.0
 11
41140.307884
 21
5432.471535
 31
0.0
  0
LINE
  5
1BB2
100
AcDbEntity
  8
LJIB
 62
     5
100
AcDbLine
 10
41188.305584
 20
5362.467235
 30
0.0
 11
41232.305584
 21
5362.467235
 31
0.0
  0
LINE
  5
1BB3
100
AcDbEntity
  8
LJIB
 62
     5
100
AcDbLine
 10
41185.305584
 20
5382.472235
 30
0.0
 11
41185.305584
 21
5373.663235
 31
0.0
  0
LINE
  5
1BB4
100
AcDbEntity
  8
LJIB
 62
     5
100
AcDbLine
 10
41235.305584
 20
5382.472235
 30
0.0
 11
41235.305584
 21
5373.663235
 31
0.0
  0
LINE
  5
1BB5
100
AcDbEntity
  8
LJIB
 62
     5
100
AcDbLine
 10
41232.307584
 20
5362.465235
 30
0.0
 11
41235.307584
 21
5373.662235
 31
0.0
  0
LINE
  5
1BB6
100
AcDbEntity
  8
LJIB
 62
     5
100
AcDbLine
 10
41188.307584
 20
5362.465235
 30
0.0
 11
41185.307584
 21
5373.662235
 31
0.0
  0
LINE
  5
1BB7
100
AcDbEntity
  8
LJIB
 62
     5
100
AcDbLine
 10
41255.318584
 20
5432.486935
 30
0.0
 11
41265.320584
 21
5427.486235
 31
0.0
  0
ARC
  5
1BB8
100
AcDbEntity
  8
LJIB
 62
     5
100
AcDbCircle
 10
41280.305584
 20
5484.971035
 30
0.0
 40
30.0
100
AcDbArc
 50
270.000001
 51
0.0
  0
ARC
  5
1BB9
100
AcDbEntity
  8
LJIB
 62
     5
100
AcDbCircle
 10
41280.305584
 20
5484.971035
 30
0.0
 40
43.0
100
AcDbArc
 50
270.000001
 51
0.0
  0
LINE
  5
1BBA
100
AcDbEntity
  8
LJIB
 62
     5
100
AcDbLine
 10
41280.306584
 20
5569.970235
 30
0.0
 11
41260.307584
 21
5569.970235
 31
0.0
  0
LINE
  5
1BBB
100
AcDbEntity
  8
LJIB
 62
     5
100
AcDbLine
 10
41280.306584
 20
5582.970535
 30
0.0
 11
41260.307584
 21
5582.970535
 31
0.0
  0
LINE
  5
1BBC
100
AcDbEntity
  8
LJIB
 62
     5
100
AcDbLine
 10
41135.307184
 20
5587.466135
 30
0.0
 11
41135.307184
 21
5574.920635
 31
0.0
  0
ARC
  5
1BBD
100
AcDbEntity
  8
LJIB
 62
     5
100
AcDbCircle
 10
41280.305584
 20
5539.971135
 30
0.0
 40
30.0
100
AcDbArc
 50
0.0
 51
89.999981
  0
LINE
  5
1BBE
100
AcDbEntity
  8
LJIB
 62
     5
100
AcDbLine
 10
41085.307049
 20
5592.466335
 30
0.0
 11
41260.306584
 21
5592.466335
 31
0.0
  0
LINE
  5
1BBF
100
AcDbEntity
  8
LJIB
 62
     5
100
AcDbLine
 10
41085.307049
 20
5642.466235
 30
0.0
 11
41265.306584
 21
5642.466235
 31
0.0
  0
LINE
  5
1BC0
100
AcDbEntity
  8
LJIB
 62
     5
100
AcDbLine
 10
40945.307584
 20
5672.463235
 30
0.0
 11
41085.307991
 21
5642.460235
 31
0.0
  0
LINE
  5
1BC1
100
AcDbEntity
  8
LJIB
 62
     5
100
AcDbLine
 10
40663.137584
 20
5741.617235
 30
0.0
 11
40675.270584
 21
5686.819235
 31
0.0
  0
LINE
  5
1BC2
100
AcDbEntity
  8
LJIB
 62
     5
100
AcDbLine
 10
40685.243584
 20
5686.054235
 30
0.0
 11
40684.477584
 21
5676.083235
 31
0.0
  0
LINE
  5
1BC3
100
AcDbEntity
  8
LJIB
 62
     5
100
AcDbLine
 10
40925.311584
 20
5672.466235
 30
0.0
 11
40945.311584
 21
5672.466235
 31
0.0
  0
LINE
  5
1BC4
100
AcDbEntity
  8
LJIB
 62
     5
100
AcDbLine
 10
41265.306584
 20
5642.466235
 30
0.0
 11
41265.306584
 21
5597.466235
 31
0.0
  0
LINE
  5
1BC5
100
AcDbEntity
  8
LJIB
 62
     5
100
AcDbLine
 10
41265.320584
 20
5597.454835
 30
0.0
 11
41255.318584
 21
5592.454135
 31
0.0
  0
LINE
  5
1BC6
100
AcDbEntity
  8
LJIB
 62
     5
100
AcDbLine
 10
41177.807084
 20
5686.465235
 30
0.0
 11
41177.807084
 21
5642.466235
 31
0.0
  0
LINE
  5
1BC7
100
AcDbEntity
  8
LJIB
 62
     5
100
AcDbLine
 10
41242.806584
 20
5686.465235
 30
0.0
 11
41242.806584
 21
5642.466235
 31
0.0
  0
LINE
  5
1BC8
100
AcDbEntity
  8
LJIB
 62
     5
100
AcDbLine
 10
41177.807684
 20
5686.465235
 30
0.0
 11
41178.807584
 21
5687.465235
 31
0.0
  0
LINE
  5
1BC9
100
AcDbEntity
  8
LJIB
 62
     5
100
AcDbLine
 10
41241.807584
 20
5687.465235
 30
0.0
 11
41242.807584
 21
5686.465235
 31
0.0
  0
LINE
  5
1BCA
100
AcDbEntity
  8
LJIB
 62
     5
100
AcDbLine
 10
41183.305784
 20
5702.466235
 30
0.0
 11
41237.305584
 21
5702.466235
 31
0.0
  0
LINE
  5
1BCB
100
AcDbEntity
  8
LJIB
 62
     5
100
AcDbLine
 10
41178.805784
 20
5687.466235
 30
0.0
 11
41241.805584
 21
5687.466235
 31
0.0
  0
LINE
  5
1BCC
100
AcDbEntity
  8
LJIB
 62
     5
100
AcDbLine
 10
41240.305584
 20
5699.466235
 30
0.0
 11
41240.305584
 21
5687.466235
 31
0.0
  0
LINE
  5
1BCD
100
AcDbEntity
  8
LJIB
 62
     5
100
AcDbLine
 10
41180.306084
 20
5699.466235
 30
0.0
 11
41180.306084
 21
5687.466235
 31
0.0
  0
LINE
  5
1BCE
100
AcDbEntity
  8
LJIB
 62
     5
100
AcDbLine
 10
41240.307584
 20
5699.465235
 30
0.0
 11
41237.307584
 21
5702.465235
 31
0.0
  0
LINE
  5
1BCF
100
AcDbEntity
  8
LJIB
 62
     5
100
AcDbLine
 10
41180.307384
 20
5699.465235
 30
0.0
 11
41183.307284
 21
5702.465235
 31
0.0
  0
LINE
  5
1BD0
100
AcDbEntity
  8
LJIB
  6
CENTER
 62
     5
100
AcDbLine
 10
40502.063584
 20
6347.676235
 30
0.0
 11
40703.928584
 21
6434.662235
 31
0.0
  0
LINE
  5
1BD1
100
AcDbEntity
  8
LJIB
 62
     5
100
AcDbLine
 10
40366.091584
 20
6299.972235
 30
0.0
 11
40457.928584
 21
6339.546235
 31
0.0
  0
LINE
  5
1BD2
100
AcDbEntity
  8
LJIB
 62
     5
100
AcDbLine
 10
40501.867584
 20
6363.924235
 30
0.0
 11
40455.949584
 21
6344.138235
 31
0.0
  0
LINE
  5
1BD3
100
AcDbEntity
  8
LJIB
 62
     5
100
AcDbLine
 10
40688.152584
 20
6449.642235
 30
0.0
 11
40715.703584
 21
6461.514235
 31
0.0
  0
LINE
  5
1BD4
100
AcDbEntity
  8
LJIB
 62
     5
100
AcDbLine
 10
40743.554584
 20
6321.073235
 30
0.0
 11
40688.152584
 21
6449.642235
 31
0.0
  0
LINE
  5
1BD5
100
AcDbEntity
  8
LJIB
 62
     5
100
AcDbLine
 10
40771.105584
 20
6332.945235
 30
0.0
 11
40743.554584
 21
6321.073235
 31
0.0
  0
LINE
  5
1BD6
100
AcDbEntity
  8
LJIB
 62
     5
100
AcDbLine
 10
40843.982584
 20
6412.781235
 30
0.0
 11
40771.105584
 21
6332.945235
 31
0.0
  0
LINE
  5
1BD7
100
AcDbEntity
  8
LJIB
 62
     5
100
AcDbLine
 10
40823.784584
 20
6459.653235
 30
0.0
 11
40715.703584
 21
6461.514235
 31
0.0
  0
ARC
  5
1BD8
100
AcDbEntity
  8
LJIB
 62
     5
100
AcDbCircle
 10
40823.302584
 20
6431.658235
 30
0.0
 40
28.0
100
AcDbArc
 50
317.609012
 51
89.013921
  0
LINE
  5
1BDA
100
AcDbEntity
  8
SUPORT1
 62
     5
100
AcDbLine
 10
41714.507049
 20
5283.770548
 30
0.0
 11
44368.007049
 21
4944.970548
 31
0.0
  0
LINE
  5
1BDB
100
AcDbEntity
  8
SUPORT1
  6
CENTER
 62
     5
100
AcDbLine
 10
40961.407049
 20
5512.470548
 30
0.0
 11
45202.007049
 21
5512.470548
 31
0.0
  0
LINE
  5
1BDC
100
AcDbEntity
  8
SUPORT1
 62
     5
100
AcDbLine
 10
42027.707049
 20
5857.170548
 30
0.0
 11
42258.707049
 21
6088.170548
 31
0.0
  0
LINE
  5
1BDD
100
AcDbEntity
  8
SUPORT1
 62
     5
100
AcDbLine
 10
41892.207049
 20
5845.070548
 30
0.0
 11
42315.507049
 21
5882.970548
 31
0.0
  0
LINE
  5
1BDE
100
AcDbEntity
  8
SUPORT1
 62
     5
100
AcDbLine
 10
42129.707049
 20
6021.070548
 30
0.0
 11
42172.907049
 21
6002.470548
 31
0.0
  0
POINT
  5
1BDF
100
AcDbEntity
  8
SUPORT1
 62
     5
100
AcDbPoint
 10
40785.2618
 20
6152.493499
 30
0.0
  0
LINE
  5
1BE0
100
AcDbEntity
  8
SUPORT1
 62
     5
100
AcDbLine
 10
40891.907049
 20
6186.070548
 30
0.0
 11
41649.607049
 21
6065.470548
 31
0.0
  0
LINE
  5
1BE1
100
AcDbEntity
  8
SUPORT1
 62
     5
100
AcDbLine
 10
41655.907049
 20
6065.870548
 30
0.0
 11
41292.607049
 21
6359.370548
 31
0.0
  0
ARC
  5
1BE2
100
AcDbEntity
  8
SUPORT1
 62
     5
100
AcDbCircle
 10
40785.307049
 20
6152.470548
 30
0.0
 40
79.9997
100
AcDbArc
 50
61.82799
 51
280.073
  0
ARC
  5
1BE3
100
AcDbEntity
  8
SUPORT1
 62
     5
100
AcDbCircle
 10
40785.2618
 20
6152.493499
 30
0.0
 40
120.057283
100
AcDbArc
 50
57.638477
 51
213.918744
  0
LINE
  5
1BE4
100
AcDbEntity
  8
SUPORT1
  6
CENTER
 62
     5
100
AcDbLine
 10
40798.607049
 20
6236.170548
 30
0.0
 11
40770.107049
 21
6057.470548
 31
0.0
  0
LINE
  5
1BE5
100
AcDbEntity
  8
SUPORT1
 62
     5
100
AcDbLine
 10
41507.207049
 20
6088.070548
 30
0.0
 11
41244.807049
 21
6300.070548
 31
0.0
  0
LINE
  5
1BE6
100
AcDbEntity
  8
SUPORT1
 62
     5
100
AcDbLine
 10
41369.707049
 20
5802.170548
 30
0.0
 11
41079.807049
 21
6054.970548
 31
0.0
  0
LINE
  5
1BE7
100
AcDbEntity
  8
SUPORT1
 62
     5
100
AcDbLine
 10
40876.207049
 20
6087.370548
 30
0.0
 11
41645.207049
 21
5964.870548
 31
0.0
  0
POINT
  5
1BE8
100
AcDbEntity
  8
SUPORT1
 62
     5
100
AcDbPoint
 10
41085.307049
 20
5512.470548
 30
0.0
  0
LINE
  5
1BE9
100
AcDbEntity
  8
SUPORT1
 62
     5
100
AcDbLine
 10
41373.307049
 20
5327.470548
 30
0.0
 11
41085.307049
 21
5375.659524
 31
0.0
  0
LINE
  5
1BEA
100
AcDbEntity
  8
SUPORT1
 62
     5
100
AcDbLine
 10
41385.307049
 20
5312.470548
 30
0.0
 11
41085.307049
 21
5360.536092
 31
0.0
  0
LINE
  5
1BEB
100
AcDbEntity
  8
SUPORT1
 62
     5
100
AcDbLine
 10
41373.307049
 20
5777.470548
 30
0.0
 11
41035.483856
 21
5637.851216
 31
0.0
  0
LINE
  5
1BEC
100
AcDbEntity
  8
SUPORT1
  6
CENTER
 62
     5
100
AcDbLine
 10
41085.307049
 20
5668.970548
 30
0.0
 11
41085.307049
 21
5247.792822
 31
0.0
  0
LINE
  5
1BED
100
AcDbEntity
  8
SUPORT1
 62
     5
100
AcDbLine
 10
40946.621146
 20
5452.735525
 30
0.0
 11
40683.807049
 21
6084.270548
 31
0.0
  0
ARC
  5
1BEE
100
AcDbEntity
  8
SUPORT1
 62
     5
100
AcDbCircle
 10
41085.307049
 20
5512.470548
 30
0.0
 40
149.916772
100
AcDbArc
 50
202.362233
 51
270.144482
  0
ARC
  5
1BEF
100
AcDbEntity
  8
SUPORT1
 62
     5
100
AcDbCircle
 10
41085.307049
 20
5512.470548
 30
0.0
 40
134.738202
100
AcDbArc
 50
106.485472
 51
270.541301
  0
LINE
  5
1BF0
100
AcDbEntity
  8
SUPORT1
 62
     5
100
AcDbLine
 10
41173.207049
 20
5973.470548
 30
0.0
 11
41198.507049
 21
6036.070548
 31
0.0
  0
LINE
  5
1BF1
100
AcDbEntity
  8
SUPORT1
 62
     5
100
AcDbLine
 10
40876.207049
 20
6087.370548
 30
0.0
 11
40799.307049
 21
6073.670548
 31
0.0
  0
LINE
  5
1BF2
100
AcDbEntity
  8
SUPORT1
 62
     5
100
AcDbLine
 10
41373.307049
 20
5777.470548
 30
0.0
 11
41373.307049
 21
5327.470548
 31
0.0
  0
LINE
  5
1BF3
100
AcDbEntity
  8
SUPORT1
 62
     5
100
AcDbLine
 10
41395.307049
 20
5802.470548
 30
0.0
 11
41395.307049
 21
5312.470548
 31
0.0
  0
LINE
  5
1BF4
100
AcDbEntity
  8
SUPORT1
 62
     5
100
AcDbLine
 10
41395.307049
 20
5312.470548
 30
0.0
 11
41714.507049
 21
5283.770548
 31
0.0
  0
LINE
  5
1BF5
100
AcDbEntity
  8
SUPORT1
 62
     5
100
AcDbLine
 10
41385.307049
 20
5312.470548
 30
0.0
 11
41395.307049
 21
5312.470548
 31
0.0
  0
LINE
  5
1BF6
100
AcDbEntity
  8
SUPORT1
 62
     5
100
AcDbLine
 10
41395.307049
 20
5802.470548
 30
0.0
 11
41737.107049
 21
5834.170548
 31
0.0
  0
LINE
  5
1BF7
100
AcDbEntity
  8
SUPORT1
 62
     5
100
AcDbLine
 10
41686.607049
 20
5943.170548
 30
0.0
 11
41658.607049
 21
5965.870548
 31
0.0
  0
LINE
  5
1BF8
100
AcDbEntity
  8
SUPORT1
 62
     5
100
AcDbLine
 10
41645.207049
 20
5964.870548
 30
0.0
 11
42000.107049
 21
5990.470548
 31
0.0
  0
LINE
  5
1BF9
100
AcDbEntity
  8
SUPORT1
 62
     5
100
AcDbLine
 10
41649.607049
 20
6065.470548
 30
0.0
 11
41992.907049
 21
6090.270548
 31
0.0
  0
LINE
  5
1BFA
100
AcDbEntity
  8
SUPORT1
 62
     5
100
AcDbLine
 10
41369.707049
 20
5802.170548
 30
0.0
 11
41385.307049
 21
5802.170548
 31
0.0
  0
LINE
  5
1BFB
100
AcDbEntity
  8
SUPORT1
 62
     5
100
AcDbLine
 10
41385.307049
 20
5802.470548
 30
0.0
 11
41395.307049
 21
5802.470548
 31
0.0
  0
LINE
  5
1BFC
100
AcDbEntity
  8
SUPORT1
 62
     5
100
AcDbLine
 10
42104.007049
 20
5961.370548
 30
0.0
 11
41992.007049
 21
5989.870548
 31
0.0
  0
LINE
  5
1BFD
100
AcDbEntity
  8
SUPORT1
 62
     5
100
AcDbLine
 10
42127.707049
 20
6016.470548
 30
0.0
 11
41992.907049
 21
6090.270548
 31
0.0
  0
LINE
  5
1BFE
100
AcDbEntity
  8
SUPORT1
 62
     5
100
AcDbLine
 10
41991.807049
 20
5853.970548
 30
0.0
 11
41992.607049
 21
5844.970548
 31
0.0
  0
LINE
  5
1BFF
100
AcDbEntity
  8
SUPORT1
 62
     5
100
AcDbLine
 10
41915.007049
 20
5865.170548
 30
0.0
 11
41916.407049
 21
5850.170548
 31
0.0
  0
LINE
  5
1C00
100
AcDbEntity
  8
SUPORT1
 62
     5
100
AcDbLine
 10
41926.307049
 20
5851.070548
 30
0.0
 11
41926.607049
 21
5848.070548
 31
0.0
  0
LINE
  5
1C01
100
AcDbEntity
  8
SUPORT1
 62
     5
100
AcDbLine
 10
41813.507049
 20
5947.470548
 30
0.0
 11
41780.007049
 21
5974.570548
 31
0.0
  0
LINE
  5
1C02
100
AcDbEntity
  8
SUPORT1
 62
     5
100
AcDbLine
 10
41740.507049
 20
5908.470548
 30
0.0
 11
41747.007049
 21
5835.070548
 31
0.0
  0
LINE
  5
1C03
100
AcDbEntity
  8
SUPORT1
 62
     5
100
AcDbLine
 10
41682.307049
 20
5937.770548
 30
0.0
 11
41707.807049
 21
5969.370548
 31
0.0
  0
ARC
  5
1C04
100
AcDbEntity
  8
SUPORT1
 62
     5
100
AcDbCircle
 10
41785.307049
 20
5912.470548
 30
0.0
 40
45.0008
100
AcDbArc
 50
50.941678
 51
185.116017
  0
LINE
  5
1C05
100
AcDbEntity
  8
SUPORT1
 62
     5
100
AcDbLine
 10
41742.207049
 20
5889.470548
 30
0.0
 11
41682.307049
 21
5937.770548
 31
0.0
  0
LINE
  5
1C06
100
AcDbEntity
  8
SUPORT1
 62
     5
100
AcDbLine
 10
41813.707049
 20
5947.370548
 30
0.0
 11
41915.107049
 21
5865.170548
 31
0.0
  0
LINE
  5
1C07
100
AcDbEntity
  8
SUPORT1
 62
     5
100
AcDbLine
 10
41737.107049
 20
5834.170548
 30
0.0
 11
41926.307049
 21
5851.070548
 31
0.0
  0
LINE
  5
1C08
100
AcDbEntity
  8
SUPORT1
 62
     5
100
AcDbLine
 10
42129.707049
 20
6021.070548
 30
0.0
 11
42102.007049
 21
5956.770548
 31
0.0
  0
LINE
  5
1C09
100
AcDbEntity
  8
SUPORT1
 62
     5
100
AcDbLine
 10
42102.007049
 20
5956.770548
 30
0.0
 11
42119.707049
 21
5949.170548
 31
0.0
  0
LINE
  5
1C0A
100
AcDbEntity
  8
SUPORT1
 62
     5
100
AcDbLine
 10
41042.307049
 20
6494.170548
 30
0.0
 11
41632.907049
 21
7123.370548
 31
0.0
  0
LINE
  5
1C0B
100
AcDbEntity
  8
SUPORT1
 62
     5
100
AcDbLine
 10
40968.307049
 20
6590.670548
 30
0.0
 11
41410.807049
 21
7062.070548
 31
0.0
  0
LINE
  5
1C0C
100
AcDbEntity
  8
SUPORT1
 62
     5
100
AcDbLine
 10
41552.907049
 20
6969.570548
 30
0.0
 11
41601.605087
 21
7090.022776
 31
0.0
  0
LINE
  5
1C0D
100
AcDbEntity
  8
SUPORT1
 62
     5
100
AcDbLine
 10
41207.607049
 20
6437.470548
 30
0.0
 11
41237.607049
 21
6511.770548
 31
0.0
  0
LINE
  5
1C0E
100
AcDbEntity
  8
SUPORT1
 62
     5
100
AcDbLine
 10
41085.507049
 20
6540.270548
 30
0.0
 11
41223.007049
 21
6424.470548
 31
0.0
  0
LINE
  5
1C0F
100
AcDbEntity
  8
SUPORT1
 62
     5
100
AcDbLine
 10
41165.807049
 20
6354.970548
 30
0.0
 11
41240.407049
 21
6294.670548
 31
0.0
  0
LINE
  5
1C10
100
AcDbEntity
  8
SUPORT1
 62
     5
100
AcDbLine
 10
40968.307049
 20
6590.670548
 30
0.0
 11
40835.907049
 21
6519.870548
 31
0.0
  0
LINE
  5
1C11
100
AcDbEntity
  8
SUPORT1
  6
CENTER
 62
     5
100
AcDbLine
 10
40724.507049
 20
6162.170548
 30
0.0
 11
40856.290866
 21
6141.179952
 31
0.0
  0
ARC
  5
1C12
100
AcDbEntity
  8
SUPORT1
 62
     5
100
AcDbCircle
 10
40850.007049
 20
6493.470548
 30
0.0
 40
30.0001
100
AcDbArc
 50
118.148023
 51
208.146973
  0
LINE
  5
1C13
100
AcDbEntity
  8
SUPORT1
 62
     5
100
AcDbLine
 10
40852.007049
 20
6426.170548
 30
0.0
 11
40823.507049
 21
6479.470548
 31
0.0
  0
LINE
  5
1C14
100
AcDbEntity
  8
SUPORT1
 62
     5
100
AcDbLine
 10
40972.007049
 20
6418.670548
 30
0.0
 11
40973.507049
 21
6402.770548
 31
0.0
  0
LINE
  5
1C15
100
AcDbEntity
  8
SUPORT1
 62
     5
100
AcDbLine
 10
41063.107049
 20
6411.370548
 30
0.0
 11
40973.507049
 21
6402.770548
 31
0.0
  0
LINE
  5
1C16
100
AcDbEntity
  8
SUPORT1
 62
     5
100
AcDbLine
 10
41056.207049
 20
6410.770548
 30
0.0
 11
41080.807049
 21
6156.070548
 31
0.0
  0
LINE
  5
1C17
100
AcDbEntity
  8
SUPORT1
 62
     5
100
AcDbLine
 10
40980.407049
 20
6403.470548
 30
0.0
 11
41003.007049
 21
6168.370548
 31
0.0
  0
LINE
  5
1C18
100
AcDbEntity
  8
SUPORT1
 62
     5
100
AcDbLine
 10
41181.307049
 20
6343.570548
 30
0.0
 11
41104.107049
 21
6152.270548
 31
0.0
  0
ARC
  5
1C19
100
AcDbEntity
  8
SUPORT1
 62
     5
100
AcDbCircle
 10
40785.407049
 20
6152.470548
 30
0.0
 40
119.999
100
AcDbArc
 50
48.913407
 51
57.702923
  0
LINE
  5
1C1A
100
AcDbEntity
  8
SUPORT1
 62
     5
100
AcDbLine
 10
40891.907049
 20
6186.070548
 30
0.0
 11
40823.007049
 21
6222.970548
 31
0.0
  0
LINE
  5
1C1B
100
AcDbEntity
  8
SUPORT1
 62
     5
100
AcDbLine
 10
40937.707049
 20
6178.870548
 30
0.0
 11
40864.207049
 21
6242.870548
 31
0.0
  0
ARC
  5
1C1C
100
AcDbEntity
  8
SUPORT1
 62
     5
100
AcDbCircle
 10
40878.407049
 20
6440.570548
 30
0.0
 40
30.0009
100
AcDbArc
 50
208.146973
 51
298.147985
  0
LINE
  5
1C1D
100
AcDbEntity
  8
SUPORT1
 62
     5
100
AcDbLine
 10
40972.007049
 20
6418.670548
 30
0.0
 11
40967.107049
 21
6453.970548
 31
0.0
  0
LINE
  5
1C1E
100
AcDbEntity
  8
SUPORT1
 62
     5
100
AcDbLine
 10
41042.307049
 20
6494.170548
 30
0.0
 11
40892.507049
 21
6414.070548
 31
0.0
  0
LINE
  5
1C1F
100
AcDbEntity
  8
SUPORT1
 62
     5
100
AcDbLine
 10
41061.607049
 20
6427.370548
 30
0.0
 11
41063.107049
 21
6411.370548
 31
0.0
  0
LINE
  5
1C20
100
AcDbEntity
  8
SUPORT1
 62
     5
100
AcDbLine
 10
41066.607049
 20
6427.870548
 30
0.0
 11
41167.407049
 21
6353.770548
 31
0.0
  0
LINE
  5
1C21
100
AcDbEntity
  8
SUPORT1
 62
     5
100
AcDbLine
 10
41269.907049
 20
6521.970548
 30
0.0
 11
41421.907049
 21
6898.570548
 31
0.0
  0
LINE
  5
1C22
100
AcDbEntity
  8
SUPORT1
 62
     5
100
AcDbLine
 10
41362.707049
 20
6484.570548
 30
0.0
 11
41557.607049
 21
6967.670548
 31
0.0
  0
LINE
  5
1C23
100
AcDbEntity
  8
SUPORT1
 62
     5
100
AcDbLine
 10
41386.807049
 20
6474.770548
 30
0.0
 11
41245.807049
 21
6531.670548
 31
0.0
  0
LINE
  5
1C24
100
AcDbEntity
  8
SUPORT1
 62
     5
100
AcDbLine
 10
41333.907049
 20
6343.070548
 30
0.0
 11
41292.907049
 21
6359.570548
 31
0.0
  0
LINE
  5
1C25
100
AcDbEntity
  8
SUPORT1
 62
     5
100
AcDbLine
 10
41239.507049
 20
6515.870548
 30
0.0
 11
41245.807049
 21
6531.670548
 31
0.0
  0
LINE
  5
1C26
100
AcDbEntity
  8
SUPORT1
 62
     5
100
AcDbLine
 10
41238.707049
 20
6514.570548
 30
0.0
 11
41239.307049
 21
6515.970548
 31
0.0
  0
LINE
  5
1C27
100
AcDbEntity
  8
SUPORT1
 62
     5
100
AcDbLine
 10
41240.607049
 20
6510.570548
 30
0.0
 11
41241.707049
 21
6513.370548
 31
0.0
  0
LINE
  5
1C28
100
AcDbEntity
  8
SUPORT1
 62
     5
100
AcDbLine
 10
41240.407049
 20
6294.670548
 30
0.0
 11
41297.007049
 21
6364.670548
 31
0.0
  0
LINE
  5
1C29
100
AcDbEntity
  8
SUPORT1
 62
     5
100
AcDbLine
 10
41236.907049
 20
6131.170548
 30
0.0
 11
41290.207049
 21
6263.370548
 31
0.0
  0
LINE
  5
1C2A
100
AcDbEntity
  8
SUPORT1
 62
     5
100
AcDbLine
 10
41222.307049
 20
6425.070548
 30
0.0
 11
41297.007049
 21
6364.670548
 31
0.0
  0
LINE
  5
1C2B
100
AcDbEntity
  8
SUPORT1
 62
     5
100
AcDbLine
 10
41380.407049
 20
6459.070548
 30
0.0
 11
41386.807049
 21
6474.770548
 31
0.0
  0
LINE
  5
1C2C
100
AcDbEntity
  8
SUPORT1
 62
     5
100
AcDbLine
 10
41380.107049
 20
6457.570548
 30
0.0
 11
41380.607049
 21
6458.970548
 31
0.0
  0
LINE
  5
1C2D
100
AcDbEntity
  8
SUPORT1
 62
     5
100
AcDbLine
 10
41376.007049
 20
6455.970548
 30
0.0
 11
41377.107049
 21
6458.770548
 31
0.0
  0
LINE
  5
1C2E
100
AcDbEntity
  8
SUPORT1
 62
     5
100
AcDbLine
 10
41320.007049
 20
6337.270548
 30
0.0
 11
41323.907049
 21
6347.070548
 31
0.0
  0
LINE
  5
1C2F
100
AcDbEntity
  8
SUPORT1
 62
     5
100
AcDbLine
 10
41333.907049
 20
6343.070548
 30
0.0
 11
41378.907049
 21
6454.770548
 31
0.0
  0
LINE
  5
1C30
100
AcDbEntity
  8
SUPORT1
 62
     5
100
AcDbLine
 10
41506.207049
 20
6988.470548
 30
0.0
 11
41557.607049
 21
6967.670548
 31
0.0
  0
LINE
  5
1C31
100
AcDbEntity
  8
SUPORT1
 62
     5
100
AcDbLine
 10
41848.207049
 20
7545.170548
 30
0.0
 11
41633.007049
 21
7123.470548
 31
0.0
  0
LINE
  5
1C32
100
AcDbEntity
  8
SUPORT1
 62
     5
100
AcDbLine
 10
41696.807049
 20
7622.470548
 30
0.0
 11
41410.807049
 21
7062.170548
 31
0.0
  0
CIRCLE
  5
1C33
100
AcDbEntity
  8
SUPORT1
 62
     5
100
AcDbCircle
 10
41681.007049
 20
7404.570548
 30
0.0
 40
35.25
  0
LINE
  5
1C34
100
AcDbEntity
  8
SUPORT1
 62
     5
100
AcDbLine
 10
41835.107049
 20
7629.570548
 30
0.0
 11
41829.907049
 21
7619.370548
 31
0.0
  0
LINE
  5
1C35
100
AcDbEntity
  8
SUPORT1
 62
     5
100
AcDbLine
 10
41772.807049
 20
7661.470548
 30
0.0
 11
41835.107049
 21
7629.570548
 31
0.0
  0
LINE
  5
1C36
100
AcDbEntity
  8
SUPORT1
 62
     5
100
AcDbLine
 10
41696.707049
 20
7622.470548
 30
0.0
 11
41772.807049
 21
7661.470548
 31
0.0
  0
LINE
  5
1C37
100
AcDbEntity
  8
SUPORT1
 62
     5
100
AcDbLine
 10
41836.607049
 20
7620.370548
 30
0.0
 11
41848.207049
 21
7545.170548
 31
0.0
  0
ARC
  5
1C39
100
AcDbEntity
  8
SUPORT1
 62
     5
100
AcDbCircle
 10
45085.307049
 20
6012.470548
 30
0.0
 40
120.0
100
AcDbArc
 50
270.000001
 51
95.117182
  0
LINE
  5
1C3A
100
AcDbEntity
  8
SUPORT1
  6
CENTER
 62
     5
100
AcDbLine
 10
45085.307049
 20
6173.070548
 30
0.0
 11
45085.307049
 21
4902.370548
 31
0.0
  0
LINE
  5
1C3B
100
AcDbEntity
  8
SUPORT1
 62
     5
100
AcDbLine
 10
44676.207049
 20
6096.270548
 30
0.0
 11
45076.007049
 21
6132.070548
 31
0.0
  0
LINE
  5
1C3C
100
AcDbEntity
  8
SUPORT1
 62
     5
100
AcDbLine
 10
42757.428797
 20
5913.444307
 30
0.0
 11
44677.107049
 21
6085.370548
 31
0.0
  0
LINE
  5
1C3D
100
AcDbEntity
  8
SUPORT1
 62
     5
100
AcDbLine
 10
44173.507049
 20
5154.070548
 30
0.0
 11
42360.407049
 21
5935.270548
 31
0.0
  0
LINE
  5
1C3E
100
AcDbEntity
  8
SUPORT1
 62
     5
100
AcDbLine
 10
44135.907049
 20
5066.870548
 30
0.0
 11
42276.107049
 21
5868.170548
 31
0.0
  0
LINE
  5
1C3F
100
AcDbEntity
  8
SUPORT1
 62
     5
100
AcDbLine
 10
42880.107049
 20
5746.770548
 30
0.0
 11
44692.907049
 21
5909.070548
 31
0.0
  0
LINE
  5
1C40
100
AcDbEntity
  8
SUPORT1
 62
     5
100
AcDbLine
 10
43261.307049
 20
5582.470548
 30
0.0
 11
44763.207049
 21
5582.470548
 31
0.0
  0
LINE
  5
1C41
100
AcDbEntity
  8
SUPORT1
 62
     5
100
AcDbLine
 10
43493.407049
 20
5482.470548
 30
0.0
 11
44763.207049
 21
5482.470548
 31
0.0
  0
LINE
  5
1C42
100
AcDbEntity
  8
SUPORT1
 62
     5
100
AcDbLine
 10
43967.407049
 20
5028.370548
 30
0.0
 11
44123.207049
 21
5072.270548
 31
0.0
  0
LINE
  5
1C43
100
AcDbEntity
  8
SUPORT1
 62
     5
100
AcDbLine
 10
43965.407049
 20
5013.470548
 30
0.0
 11
44370.207049
 21
4961.870548
 31
0.0
  0
LINE
  5
1C44
100
AcDbEntity
  8
SUPORT1
 62
     5
100
AcDbLine
 10
44026.624771
 20
5217.356872
 30
0.0
 11
44396.807049
 21
5170.170548
 31
0.0
  0
LINE
  5
1C45
100
AcDbEntity
  8
SUPORT1
 62
     5
100
AcDbLine
 10
43967.307049
 20
5028.370548
 30
0.0
 11
43965.407049
 21
5013.470548
 31
0.0
  0
LINE
  5
1C46
100
AcDbEntity
  8
SUPORT1
 62
     5
100
AcDbLine
 10
42202.921566
 20
5450.217649
 30
0.0
 11
43685.307049
 21
5260.970548
 31
0.0
  0
LINE
  5
1C47
100
AcDbEntity
  8
SUPORT1
 62
     5
100
AcDbLine
 10
42200.307049
 20
5482.470548
 30
0.0
 11
43171.207049
 21
5482.470548
 31
0.0
  0
LINE
  5
1C48
100
AcDbEntity
  8
SUPORT1
 62
     5
100
AcDbLine
 10
42182.287542
 20
5684.268802
 30
0.0
 11
42203.107049
 21
5451.670548
 31
0.0
  0
LINE
  5
1C49
100
AcDbEntity
  8
SUPORT1
 62
     5
100
AcDbLine
 10
42191.407049
 20
5582.470548
 30
0.0
 11
42939.107049
 21
5582.470548
 31
0.0
  0
LINE
  5
1C4A
100
AcDbEntity
  8
SUPORT1
 62
     5
100
AcDbLine
 10
42203.107049
 20
5451.670548
 30
0.0
 11
42196.107049
 21
5451.070548
 31
0.0
  0
LINE
  5
1C4B
100
AcDbEntity
  8
SUPORT1
 62
     5
100
AcDbLine
 10
42258.807049
 20
6088.170548
 30
0.0
 11
42757.428797
 21
5913.444307
 31
0.0
  0
LINE
  5
1C4C
100
AcDbEntity
  8
SUPORT1
 62
     5
100
AcDbLine
 10
42307.307049
 20
5882.170548
 30
0.0
 11
42447.207049
 21
6022.170548
 31
0.0
  0
LINE
  5
1C4D
100
AcDbEntity
  8
SUPORT1
 62
     5
100
AcDbLine
 10
42182.307049
 20
5684.270548
 30
0.0
 11
42613.307049
 21
5722.870548
 31
0.0
  0
LINE
  5
1C4E
100
AcDbEntity
  8
SUPORT1
 62
     5
100
AcDbLine
 10
42812.107049
 20
5740.670548
 30
0.0
 11
42848.707049
 21
5743.970548
 31
0.0
  0
LINE
  5
1C4F
100
AcDbEntity
  8
SUPORT1
 62
     5
100
AcDbLine
 10
43411.307049
 20
5482.470548
 30
0.0
 11
43455.507049
 21
5482.470548
 31
0.0
  0
LINE
  5
1C50
100
AcDbEntity
  8
SUPORT1
 62
     5
100
AcDbLine
 10
43179.207049
 20
5582.470548
 30
0.0
 11
43223.407049
 21
5582.470548
 31
0.0
  0
LINE
  5
1C51
100
AcDbEntity
  8
SUPORT1
 62
     5
100
AcDbLine
 10
44763.207049
 20
5892.470548
 30
0.0
 11
44763.207049
 21
4882.470548
 31
0.0
  0
LINE
  5
1C52
100
AcDbEntity
  8
SUPORT1
 62
     5
100
AcDbLine
 10
44885.307049
 20
5777.470548
 30
0.0
 11
44885.307049
 21
5171.370548
 31
0.0
  0
LINE
  5
1C53
100
AcDbEntity
  8
SUPORT1
 62
     5
100
AcDbLine
 10
44763.207049
 20
5194.798068
 30
0.0
 11
45165.307049
 21
5117.470548
 31
0.0
  0
LINE
  5
1C54
100
AcDbEntity
  8
SUPORT1
 62
     5
100
AcDbLine
 10
44775.307049
 20
4882.470548
 30
0.0
 11
45165.307049
 21
4907.470548
 31
0.0
  0
LINE
  5
1C55
100
AcDbEntity
  8
SUPORT1
 62
     5
100
AcDbLine
 10
44397.807049
 20
5178.270548
 30
0.0
 11
44763.207049
 21
5183.870548
 31
0.0
  0
LINE
  5
1C56
100
AcDbEntity
  8
SUPORT1
 62
     5
100
AcDbLine
 10
44366.507049
 20
4933.070548
 30
0.0
 11
44763.307049
 21
4882.370548
 31
0.0
  0
LINE
  5
1C57
100
AcDbEntity
  8
SUPORT1
 62
     5
100
AcDbLine
 10
44397.807049
 20
5178.270548
 30
0.0
 11
44366.507049
 21
4933.070548
 31
0.0
  0
CIRCLE
  5
1C58
100
AcDbEntity
  8
SUPORT1
 62
     5
100
AcDbCircle
 10
44206.107049
 20
5088.270548
 30
0.0
 40
19.05
  0
CIRCLE
  5
1C59
100
AcDbEntity
  8
SUPORT1
 62
     5
100
AcDbCircle
 10
44206.107049
 20
5088.270548
 30
0.0
 40
13.0
  0
LINE
  5
1C5A
100
AcDbEntity
  8
SUPORT1
 62
     5
100
AcDbLine
 10
44140.307049
 20
5077.170548
 30
0.0
 11
44149.907049
 21
5079.870548
 31
0.0
  0
LINE
  5
1C5B
100
AcDbEntity
  8
SUPORT1
 62
     5
100
AcDbLine
 10
44213.207049
 20
5167.970548
 30
0.0
 11
44154.607049
 21
5031.870548
 31
0.0
  0
LINE
  5
1C5C
100
AcDbEntity
  8
SUPORT1
 62
     5
100
AcDbLine
 10
44259.107049
 20
5148.170548
 30
0.0
 11
44213.207049
 21
5167.970548
 31
0.0
  0
LINE
  5
1C5D
100
AcDbEntity
  8
SUPORT1
 62
     5
100
AcDbLine
 10
44142.807049
 20
5082.870548
 30
0.0
 11
44171.307049
 21
5070.670548
 31
0.0
  0
LINE
  5
1C5E
100
AcDbEntity
  8
SUPORT1
 62
     5
100
AcDbLine
 10
44166.507049
 20
5137.970548
 30
0.0
 11
44195.007049
 21
5125.770548
 31
0.0
  0
LINE
  5
1C5F
100
AcDbEntity
  8
SUPORT1
  6
CENTER
 62
     5
100
AcDbLine
 10
44216.107049
 20
5111.470548
 30
0.0
 11
44196.307049
 21
5065.470548
 31
0.0
  0
LINE
  5
1C60
100
AcDbEntity
  8
SUPORT1
 62
     5
100
AcDbLine
 10
44135.907049
 20
5066.870548
 30
0.0
 11
44173.507049
 21
5154.070548
 31
0.0
  0
LINE
  5
1C61
100
AcDbEntity
  8
SUPORT1
 62
     5
100
AcDbLine
 10
44257.407049
 20
4959.070548
 30
0.0
 11
44256.107049
 21
4949.170548
 31
0.0
  0
LINE
  5
1C62
100
AcDbEntity
  8
SUPORT1
 62
     5
100
AcDbLine
 10
44200.507049
 20
5012.070548
 30
0.0
 11
44154.607049
 21
5031.870548
 31
0.0
  0
LINE
  5
1C63
100
AcDbEntity
  8
SUPORT1
 62
     5
100
AcDbLine
 10
44259.107049
 20
5148.170548
 30
0.0
 11
44200.507049
 21
5012.070548
 31
0.0
  0
LINE
  5
1C64
100
AcDbEntity
  8
SUPORT1
 62
     5
100
AcDbLine
 10
44240.707049
 20
5105.470548
 30
0.0
 11
44394.007049
 21
5148.670548
 31
0.0
  0
LINE
  5
1C65
100
AcDbEntity
  8
SUPORT1
 62
     5
100
AcDbLine
 10
44256.107049
 20
4949.170548
 30
0.0
 11
44366.707049
 21
4935.070548
 31
0.0
  0
LINE
  5
1C66
100
AcDbEntity
  8
SUPORT1
 62
     5
100
AcDbLine
 10
44763.207049
 20
5171.870548
 30
0.0
 11
44763.307049
 21
5167.870548
 31
0.0
  0
LINE
  5
1C67
100
AcDbEntity
  8
SUPORT1
 62
     5
100
AcDbLine
 10
44763.007049
 20
5171.870548
 30
0.0
 11
44763.307049
 21
5167.870548
 31
0.0
  0
LINE
  5
1C68
100
AcDbEntity
  8
SUPORT1
 62
     5
100
AcDbLine
 10
44763.207049
 20
4882.470548
 30
0.0
 11
44775.207049
 21
4882.470548
 31
0.0
  0
LINE
  5
1C69
100
AcDbEntity
  8
SUPORT1
 62
     5
100
AcDbLine
 10
45069.907049
 20
5070.470548
 30
0.0
 11
45158.007049
 21
5094.070548
 31
0.0
  0
LINE
  5
1C6A
100
AcDbEntity
  8
SUPORT1
 62
     5
100
AcDbLine
 10
45165.307049
 20
5117.470548
 30
0.0
 11
45165.307049
 21
5103.770548
 31
0.0
  0
ARC
  5
1C6B
100
AcDbEntity
  8
SUPORT1
 62
     5
100
AcDbCircle
 10
45155.307049
 20
5103.770548
 30
0.0
 40
10.0004
100
AcDbArc
 50
285.008974
 51
0.0
  0
LINE
  5
1C6C
100
AcDbEntity
  8
SUPORT1
  6
CENTER
 62
     5
100
AcDbLine
 10
44987.207049
 20
5012.470548
 30
0.0
 11
45196.507049
 21
5012.470548
 31
0.0
  0
LINE
  5
1C6D
100
AcDbEntity
  8
SUPORT1
 62
     5
100
AcDbLine
 10
45069.807049
 20
4954.570548
 30
0.0
 11
45157.907049
 21
4930.970548
 31
0.0
  0
LINE
  5
1C6E
100
AcDbEntity
  8
SUPORT1
 62
     5
100
AcDbLine
 10
45165.307049
 20
4921.270548
 30
0.0
 11
45165.307049
 21
4907.470548
 31
0.0
  0
LINE
  5
1C6F
100
AcDbEntity
  8
SUPORT1
 62
     5
100
AcDbLine
 10
45165.307049
 20
4921.270548
 30
0.0
 11
45165.307049
 21
4907.470548
 31
0.0
  0
ARC
  5
1C70
100
AcDbEntity
  8
SUPORT1
 62
     5
100
AcDbCircle
 10
45155.307049
 20
4921.270548
 30
0.0
 40
10.0
100
AcDbArc
 50
0.0
 51
74.990722
  0
ARC
  5
1C71
100
AcDbEntity
  8
SUPORT1
 62
     5
100
AcDbCircle
 10
45085.307049
 20
5012.470548
 30
0.0
 40
60.0
100
AcDbArc
 50
104.588976
 51
255.945977
  0
LINE
  5
1C72
100
AcDbEntity
  8
SUPORT1
 62
     5
100
AcDbLine
 10
44694.407049
 20
5892.470548
 30
0.0
 11
45085.307049
 21
5892.470548
 31
0.0
  0
LINE
  5
1C73
100
AcDbEntity
  8
SUPORT1
 62
     5
100
AcDbLine
 10
44985.407049
 20
5877.470548
 30
0.0
 11
44885.407049
 21
5777.470548
 31
0.0
  0
LINE
  5
1C74
100
AcDbEntity
  8
SUPORT1
 62
     5
100
AcDbLine
 10
44275.007049
 20
6002.170548
 30
0.0
 11
44683.207049
 21
5928.270548
 31
0.0
  0
LINE
  5
1C75
100
AcDbEntity
  8
SUPORT1
 62
     5
100
AcDbLine
 10
44218.207049
 20
6053.270548
 30
0.0
 11
44676.307049
 21
6094.270548
 31
0.0
  0
LINE
  5
1C76
100
AcDbEntity
  8
SUPORT1
 62
     5
100
AcDbLine
 10
44272.307049
 20
6032.070548
 30
0.0
 11
44670.707049
 21
6067.670548
 31
0.0
  0
LINE
  5
1C77
100
AcDbEntity
  8
SUPORT1
 62
     5
100
AcDbLine
 10
44218.207049
 20
6053.270548
 30
0.0
 11
44219.007049
 21
6044.370548
 31
0.0
  0
LINE
  5
1C78
100
AcDbEntity
  8
SUPORT1
 62
     5
100
AcDbLine
 10
44272.307049
 20
6032.070548
 30
0.0
 11
44274.907049
 21
6002.170548
 31
0.0
  0
LINE
  5
1C79
100
AcDbEntity
  8
SUPORT1
 62
     5
100
AcDbLine
 10
44676.207049
 20
6096.270548
 30
0.0
 11
44694.407049
 21
5892.470548
 31
0.0
  0
LINE
  5
1C7A
100
AcDbEntity
  8
SUPORT1
 62
     5
100
AcDbLine
 10
44670.707049
 20
6067.670548
 30
0.0
 11
44683.207049
 21
5928.270548
 31
0.0
  0
CIRCLE
  5
1C7B
100
AcDbEntity
  8
SUPORT1
 62
     5
100
AcDbCircle
 10
45085.307049
 20
6012.470548
 30
0.0
 40
50.0
  0
CIRCLE
  5
1C7C
100
AcDbEntity
  8
SUPORT1
 62
     5
100
AcDbCircle
 10
45085.307049
 20
6012.470548
 30
0.0
 40
50.0
  0
LINE
  5
1C7D
100
AcDbEntity
  8
SUPORT1
 62
     5
100
AcDbLine
 10
44985.307049
 20
5892.470548
 30
0.0
 11
44985.307049
 21
5877.470548
 31
0.0
  0
LINE
  5
1C7E
100
AcDbEntity
  8
SUPORT1
  6
CENTER
 62
     5
100
AcDbLine
 10
45000.407049
 20
6012.470548
 30
0.0
 11
45156.507049
 21
6012.470548
 31
0.0
  0
LINE
  5
1C7F
100
AcDbEntity
  8
SUPORT2
 62
     5
100
AcDbLine
 10
43753.93921
 20
13517.650996
 30
0.0
 11
41027.22921
 21
6413.050996
 31
0.0
  0
LINE
  5
1C80
100
AcDbEntity
  8
SUPORT2
 62
     5
100
AcDbLine
 10
43503.83921
 20
13613.650996
 30
0.0
 11
40778.453374
 21
6508.568897
 31
0.0
  0
ARC
  5
1C81
100
AcDbEntity
  8
SUPORT2
 62
     5
100
AcDbCircle
 10
43291.02921
 20
13408.750996
 30
0.0
 40
89.9999
100
AcDbArc
 50
262.492994
 51
110.546993
  0
CIRCLE
  5
1C82
100
AcDbEntity
  8
SUPORT2
 62
     5
100
AcDbCircle
 10
43291.02921
 20
13408.750996
 30
0.0
 40
39.9999
  0
LINE
  5
1C83
100
AcDbEntity
  8
SUPORT2
 62
     5
100
AcDbLine
 10
43271.82921
 20
13496.650996
 30
0.0
 11
43488.80921
 21
13544.050996
 31
0.0
  0
LINE
  5
1C84
100
AcDbEntity
  8
SUPORT2
 62
     5
100
AcDbLine
 10
36703.02921
 20
12587.950996
 30
0.0
 11
40534.82921
 21
6760.950996
 31
0.0
  0
LINE
  5
1C85
100
AcDbEntity
  8
SUPORT2
 62
     5
100
AcDbLine
 10
36494.12921
 20
12450.550996
 30
0.0
 11
40325.92921
 21
6623.550996
 31
0.0
  0
POINT
  5
1C86
100
AcDbEntity
  8
SUPORT2
 62
     5
100
AcDbPoint
 10
40785.2618
 20
6152.493499
 30
0.0
  0
ARC
  5
1C87
100
AcDbEntity
  8
SUPORT2
 62
     5
100
AcDbCircle
 10
40538.02921
 20
6528.450996
 30
0.0
 40
79.9997
100
AcDbArc
 50
63.165274
 51
212.055003
  0
LINE
  5
1C88
100
AcDbEntity
  8
SUPORT2
 62
     5
100
AcDbLine
 10
40541.02921
 20
6765.050996
 30
0.0
 11
40319.62921
 21
6619.450996
 31
0.0
  0
LINE
  5
1C89
100
AcDbEntity
  8
SUPORT2
 62
     5
100
AcDbLine
 10
40476.42921
 20
6476.050996
 30
0.0
 11
40328.42921
 21
6606.150996
 31
0.0
  0
LINE
  5
1C8A
100
AcDbEntity
  8
SUPORT2
 62
     5
100
AcDbLine
 10
40319.62921
 20
6619.450996
 30
0.0
 11
40328.42921
 21
6606.050996
 31
0.0
  0
CIRCLE
  5
1C8B
100
AcDbEntity
  8
SUPORT2
 62
     5
100
AcDbCircle
 10
40538.02921
 20
6528.450996
 30
0.0
 40
40.0
  0
LINE
  5
1C8C
100
AcDbEntity
  8
SUPORT2
 62
     5
100
AcDbLine
 10
41027.22921
 20
6413.050996
 30
0.0
 11
40679.52921
 21
6546.550996
 31
0.0
  0
LINE
  5
1C8D
100
AcDbEntity
  8
SUPORT2
 62
     5
100
AcDbLine
 10
41027.32921
 20
6413.050996
 30
0.0
 11
40836.415387
 21
6045.836686
 31
0.0
  0
LINE
  5
1C8E
100
AcDbEntity
  8
SUPORT2
 62
     5
100
AcDbLine
 10
40470.32921
 20
6485.950996
 30
0.0
 11
40708.42921
 21
6105.650996
 31
0.0
  0
ARC
  5
1C8F
100
AcDbEntity
  8
SUPORT2
 62
     5
100
AcDbCircle
 10
40827.542847
 20
6050.449497
 30
0.0
 40
10.0
100
AcDbArc
 50
240.766793
 51
332.530189
  0
LINE
  5
1C90
100
AcDbEntity
  8
SUPORT2
 62
     5
100
AcDbLine
 10
40708.42921
 20
6105.650996
 30
0.0
 11
40822.659192
 21
6041.723106
 31
0.0
  0
LINE
  5
1C91
100
AcDbEntity
  8
SUPORT2
  6
CENTER
 62
     5
100
AcDbLine
 10
40831.62921
 20
6134.650996
 30
0.0
 11
40751.32921
 21
6165.550996
 31
0.0
  0
LINE
  5
1C92
100
AcDbEntity
  8
SUPORT2
  6
CENTER
 62
     5
100
AcDbLine
 10
40746.52921
 20
6127.050996
 30
0.0
 11
40821.42921
 21
6176.250996
 31
0.0
  0
LINE
  5
1C93
100
AcDbEntity
  8
SUPORT2
 62
     5
100
AcDbLine
 10
40603.92921
 20
6584.850996
 30
0.0
 11
40549.82921
 21
6751.650996
 31
0.0
  0
LINE
  5
1C94
100
AcDbEntity
  8
SUPORT2
 62
     5
100
AcDbLine
 10
40541.02921
 20
6765.050996
 30
0.0
 11
40549.82921
 21
6751.650996
 31
0.0
  0
LINE
  5
1C95
100
AcDbEntity
  8
SUPORT2
 62
     5
100
AcDbLine
 10
40679.52921
 20
6546.550996
 30
0.0
 11
40574.22921
 21
6599.850996
 31
0.0
  0
LINE
  5
1C96
100
AcDbEntity
  8
SUPORT2
 62
     5
100
AcDbLine
 10
40278.774567
 20
7267.593534
 30
0.0
 11
41002.967912
 21
7343.308371
 31
0.0
  0
LINE
  5
1C97
100
AcDbEntity
  8
SUPORT2
 62
     5
100
AcDbLine
 10
40269.393061
 20
7343.250602
 30
0.0
 11
41027.540398
 21
7422.500446
 31
0.0
  0
ARC
  5
1C98
100
AcDbEntity
  8
SUPORT2
 62
     5
100
AcDbCircle
 10
40261.42921
 20
7304.050996
 30
0.0
 40
40.0004
100
AcDbArc
 50
303.327982
 51
90.782011
  0
LINE
  5
1C99
100
AcDbEntity
  8
SUPORT2
 62
     5
100
AcDbLine
 10
40159.050805
 20
7332.395426
 30
0.0
 11
40174.82921
 21
7342.850996
 31
0.0
  0
LINE
  5
1C9A
100
AcDbEntity
  8
SUPORT2
 62
     5
100
AcDbLine
 10
40174.82921
 20
7342.850996
 30
0.0
 11
40260.92921
 21
7344.050996
 31
0.0
  0
LINE
  5
1C9B
100
AcDbEntity
  8
SUPORT2
 62
     5
100
AcDbLine
 10
40224.924583
 20
7232.221486
 30
0.0
 11
40283.42921
 21
7270.650996
 31
0.0
  0
LINE
  5
1C9C
100
AcDbEntity
  8
SUPORT2
 62
     5
100
AcDbLine
 10
41055.32921
 20
7494.850996
 30
0.0
 11
41005.12921
 21
7364.150996
 31
0.0
  0
LINE
  5
1C9D
100
AcDbEntity
  8
SUPORT2
 62
     5
100
AcDbLine
 10
41079.52921
 20
7292.750996
 30
0.0
 11
41028.12921
 21
7312.450996
 31
0.0
  0
ARC
  5
1C9E
100
AcDbEntity
  8
SUPORT2
 62
     5
100
AcDbCircle
 10
41042.42921
 20
7349.850996
 30
0.0
 40
40.0
100
AcDbArc
 50
158.998023
 51
249.000009
  0
LINE
  5
1C9F
100
AcDbEntity
  8
SUPORT2
 62
     5
100
AcDbLine
 10
41158.32921
 20
7498.150996
 30
0.0
 11
41107.02921
 21
7517.850996
 31
0.0
  0
ARC
  5
1CA0
100
AcDbEntity
  8
SUPORT2
 62
     5
100
AcDbCircle
 10
41092.62921
 20
7480.550996
 30
0.0
 40
40.0006
100
AcDbArc
 50
68.999989
 51
158.998023
  0
LINE
  5
1CA1
100
AcDbEntity
  8
SUPORT2
 62
     5
100
AcDbLine
 10
41686.42921
 20
8151.250996
 30
0.0
 11
41453.02921
 21
8240.850996
 31
0.0
  0
LINE
  5
1CA2
100
AcDbEntity
  8
SUPORT2
 62
     5
100
AcDbLine
 10
41688.92921
 20
8157.750996
 30
0.0
 11
41455.52921
 21
8247.350996
 31
0.0
  0
LINE
  5
1CA3
100
AcDbEntity
  8
SUPORT2
 62
     5
100
AcDbLine
 10
39731.02921
 20
12831.550996
 30
0.0
 11
37132.22921
 21
12443.350996
 31
0.0
  0
LINE
  5
1CA4
100
AcDbEntity
  8
SUPORT2
 62
     5
100
AcDbLine
 10
36709.32921
 20
12592.050996
 30
0.0
 11
36487.82921
 21
12446.550996
 31
0.0
  0
ARC
  5
1CA5
100
AcDbEntity
  8
SUPORT2
 62
     5
100
AcDbCircle
 10
36664.52921
 20
12418.950996
 30
0.0
 40
222.499
100
AcDbArc
 50
32.341982
 51
253.600807
  0
CIRCLE
  5
1CA6
100
AcDbEntity
  8
SUPORT2
 62
     5
100
AcDbCircle
 10
36664.52921
 20
12418.950996
 30
0.0
 40
65.0
  0
ARC
  5
1CA7
100
AcDbEntity
  8
SUPORT2
 62
     5
100
AcDbCircle
 10
36961.22921
 20
12463.250996
 30
0.0
 40
90.0001
100
AcDbArc
 50
278.495017
 51
98.494883
  0
CIRCLE
  5
1CA8
100
AcDbEntity
  8
SUPORT2
 62
     5
100
AcDbCircle
 10
36961.22921
 20
12463.250996
 30
0.0
 40
39.9999
  0
LINE
  5
1CA9
100
AcDbEntity
  8
SUPORT2
 62
     5
100
AcDbLine
 10
36663.82921
 20
12083.350996
 30
0.0
 11
36713.92921
 21
12116.350996
 31
0.0
  0
ARC
  5
1CAA
100
AcDbEntity
  8
SUPORT2
 62
     5
100
AcDbCircle
 10
36644.52921
 20
12112.650996
 30
0.0
 40
35.0059
100
AcDbArc
 50
184.728984
 51
303.329013
  0
LINE
  5
1CAB
100
AcDbEntity
  8
SUPORT2
 62
     5
100
AcDbLine
 10
36595.72921
 20
12277.850996
 30
0.0
 11
36604.12921
 21
12283.350996
 31
0.0
  0
LINE
  5
1CAC
100
AcDbEntity
  8
SUPORT2
 62
     5
100
AcDbLine
 10
36609.62921
 20
12109.750996
 30
0.0
 11
36595.72921
 21
12277.850996
 31
0.0
  0
LINE
  5
1CAD
100
AcDbEntity
  8
SUPORT2
 62
     5
100
AcDbLine
 10
36855.22921
 20
12356.450996
 30
0.0
 11
36974.52921
 21
12374.250996
 31
0.0
  0
LINE
  5
1CAE
100
AcDbEntity
  8
SUPORT2
  6
PHANTOM
 62
     5
100
AcDbLine
 10
36895.42921
 20
12362.450996
 30
0.0
 11
36896.12921
 21
12357.450996
 31
0.0
  0
ARC
  5
1CAF
100
AcDbEntity
  8
SUPORT2
 62
     5
100
AcDbCircle
 10
37146.92921
 20
12344.450996
 30
0.0
 40
100.0
100
AcDbArc
 50
98.494482
 51
116.873994
  0
LINE
  5
1CB0
100
AcDbEntity
  8
SUPORT2
 62
     5
100
AcDbLine
 10
37101.82921
 20
12433.650996
 30
0.0
 11
37001.92921
 21
12383.050996
 31
0.0
  0
LINE
  5
1CB1
100
AcDbEntity
  8
SUPORT2
 62
     5
100
AcDbLine
 10
39717.72921
 20
12920.550996
 30
0.0
 11
37118.92921
 21
12532.350996
 31
0.0
  0
LINE
  5
1CB2
100
AcDbEntity
  8
SUPORT2
 62
     5
100
AcDbLine
 10
37087.02921
 20
12532.750996
 30
0.0
 11
36976.62921
 21
12551.950996
 31
0.0
  0
LINE
  5
1CB3
100
AcDbEntity
  8
SUPORT2
 62
     5
100
AcDbLine
 10
36746.328306
 20
12522.106267
 30
0.0
 11
36950.62921
 21
12552.650996
 31
0.0
  0
ARC
  5
1CB4
100
AcDbEntity
  8
SUPORT2
 62
     5
100
AcDbCircle
 10
37104.12921
 20
12631.250996
 30
0.0
 40
99.9998
100
AcDbArc
 50
260.116021
 51
278.495017
  0
LINE
  5
1CB5
100
AcDbEntity
  8
SUPORT2
 62
     5
100
AcDbLine
 10
43123.52921
 20
13444.350996
 30
0.0
 11
40038.72921
 21
12983.650996
 31
0.0
  0
LINE
  5
1CB6
100
AcDbEntity
  8
SUPORT2
 62
     5
100
AcDbLine
 10
43135.92921
 20
13335.050996
 30
0.0
 11
40058.62921
 21
12875.350996
 31
0.0
  0
LINE
  5
1CB7
100
AcDbEntity
  8
SUPORT2
 62
     5
100
AcDbLine
 10
39748.22921
 20
12930.250996
 30
0.0
 11
39848.12921
 21
12980.850996
 31
0.0
  0
ARC
  5
1CB8
100
AcDbEntity
  8
SUPORT2
 62
     5
100
AcDbCircle
 10
39888.72921
 20
12900.550996
 30
0.0
 40
89.9997
100
AcDbArc
 50
86.441627
 51
294.617992
  0
CIRCLE
  5
1CB9
100
AcDbEntity
  8
SUPORT2
 62
     5
100
AcDbCircle
 10
39888.72921
 20
12900.550996
 30
0.0
 40
39.9999
  0
CIRCLE
  5
1CBA
100
AcDbEntity
  8
SUPORT2
 62
     5
100
AcDbCircle
 10
39888.72921
 20
12900.550996
 30
0.0
 40
39.9999
  0
LINE
  5
1CBB
100
AcDbEntity
  8
SUPORT2
 62
     5
100
AcDbLine
 10
40031.52921
 20
12867.250996
 30
0.0
 11
39926.42921
 21
12818.850996
 31
0.0
  0
LINE
  5
1CBC
100
AcDbEntity
  8
SUPORT2
 62
     5
100
AcDbLine
 10
39762.92921
 20
12831.150996
 30
0.0
 11
39873.22921
 21
12811.850996
 31
0.0
  0
ARC
  5
1CBD
100
AcDbEntity
  8
SUPORT2
 62
     5
100
AcDbCircle
 10
39702.92921
 20
13019.450996
 30
0.0
 40
99.9995
100
AcDbArc
 50
278.495017
 51
296.874014
  0
ARC
  5
1CBE
100
AcDbEntity
  8
SUPORT2
 62
     5
100
AcDbCircle
 10
39745.72921
 20
12732.550996
 30
0.0
 40
100.0
100
AcDbArc
 50
80.1156
 51
98.494482
  0
ARC
  5
1CBF
100
AcDbEntity
  8
SUPORT2
 62
     5
100
AcDbCircle
 10
40073.32921
 20
12776.450996
 30
0.0
 40
100.0
100
AcDbArc
 50
98.494482
 51
114.755024
  0
LINE
  5
1CC0
100
AcDbEntity
  8
SUPORT2
 62
     5
100
AcDbLine
 10
40065.22921
 20
12870.250996
 30
0.0
 11
40064.32921
 21
12876.250996
 31
0.0
  0
LINE
  5
1CC1
100
AcDbEntity
  8
SUPORT2
 62
     5
100
AcDbLine
 10
40017.72921
 20
12982.750996
 30
0.0
 11
39894.32921
 21
12990.350996
 31
0.0
  0
ARC
  5
1CC2
100
AcDbEntity
  8
SUPORT2
 62
     5
100
AcDbCircle
 10
40023.92921
 20
13082.550996
 30
0.0
 40
100.0
100
AcDbArc
 50
266.441991
 51
278.495017
  0
LINE
  5
1CC3
100
AcDbEntity
  8
SUPORT2
 62
     5
100
AcDbLine
 10
43164.12921
 20
13335.150996
 30
0.0
 11
43278.82921
 21
13319.550996
 31
0.0
  0
LINE
  5
1CC4
100
AcDbEntity
  8
SUPORT2
 62
     5
100
AcDbLine
 10
43131.22921
 20
13328.250996
 30
0.0
 11
43130.32921
 21
13334.150996
 31
0.0
  0
ARC
  5
1CC5
100
AcDbEntity
  8
SUPORT2
 62
     5
100
AcDbCircle
 10
43150.62921
 20
13236.050996
 30
0.0
 40
100.0
100
AcDbArc
 50
82.234111
 51
98.494482
  0
LINE
  5
1CC6
100
AcDbEntity
  8
SUPORT2
 62
     5
100
AcDbLine
 10
43143.72921
 20
13449.650996
 30
0.0
 11
43259.42921
 21
13493.050996
 31
0.0
  0
ARC
  5
1CC7
100
AcDbEntity
  8
SUPORT2
 62
     5
100
AcDbCircle
 10
43108.52921
 20
13543.250996
 30
0.0
 40
99.9995
100
AcDbArc
 50
278.495017
 51
290.547987
  0
ARC
  5
1CC8
100
AcDbEntity
  8
SUPORT2
 62
     5
100
AcDbCircle
 10
43587.68921
 20
13453.050996
 30
0.0
 40
222.501
100
AcDbArc
 50
308.432979
 51
162.692106
  0
LINE
  5
1CC9
100
AcDbEntity
  8
SUPORT2
 62
     5
100
AcDbLine
 10
43912.07921
 20
12877.450996
 30
0.0
 11
43790.96921
 21
13117.650996
 31
0.0
  0
LINE
  5
1CCA
100
AcDbEntity
  8
SUPORT2
 62
     5
100
AcDbLine
 10
43857.61921
 20
12850.050996
 30
0.0
 11
43736.49921
 21
13090.150996
 31
0.0
  0
LINE
  5
1CCB
100
AcDbEntity
  8
SUPORT2
 62
     5
100
AcDbLine
 10
43912.08921
 20
12877.450996
 30
0.0
 11
43857.61921
 21
12850.050996
 31
0.0
  0
LINE
  5
1CCC
100
AcDbEntity
  8
SUPORT2
 62
     5
100
AcDbLine
 10
43682.054589
 20
13330.351476
 30
0.0
 11
43782.43921
 21
13131.250996
 31
0.0
  0
LINE
  5
1CCD
100
AcDbEntity
  8
SUPORT2
 62
     5
100
AcDbLine
 10
43689.805911
 20
13350.54799
 30
0.0
 11
43801.21921
 21
13129.550996
 31
0.0
  0
LINE
  5
1CCE
100
AcDbEntity
  8
SUPORT2
 62
     5
100
AcDbLine
 10
43744.94921
 20
13241.150996
 30
0.0
 11
43755.65921
 21
13246.550996
 31
0.0
  0
LINE
  5
1CCF
100
AcDbEntity
  8
SUPORT2
 62
     5
100
AcDbLine
 10
43784.22921
 20
13125.450996
 30
0.0
 11
43727.49921
 21
13237.950996
 31
0.0
  0
LINE
  5
1CD0
100
AcDbEntity
  8
SUPORT2
 62
     5
100
AcDbLine
 10
43730.64921
 20
13105.150996
 30
0.0
 11
43653.992343
 21
13257.233675
 31
0.0
  0
LINE
  5
1CD1
100
AcDbEntity
  8
SUPORT2
 62
     5
100
AcDbLine
 10
43703.39921
 20
13097.050996
 30
0.0
 11
43653.87921
 21
13195.250996
 31
0.0
  0
LINE
  5
1CD2
100
AcDbEntity
  8
SUPORT2
  6
PHANTOM
 62
     5
100
AcDbLine
 10
43691.32921
 20
13121.150996
 30
0.0
 11
43685.07921
 21
13118.050996
 31
0.0
  0
LINE
  5
1CD3
100
AcDbEntity
  8
SUPORT2
 62
     5
100
AcDbLine
 10
43720.85921
 20
13089.050996
 30
0.0
 11
43646.240623
 21
13237.036122
 31
0.0
  0
LINE
  5
1CD4
100
AcDbEntity
  8
SUPORT2
 62
     5
100
AcDbLine
 10
43734.22921
 20
13100.250996
 30
0.0
 11
43677.49921
 21
13212.750996
 31
0.0
  0
LINE
  5
1CD5
100
AcDbEntity
  8
SUPORT2
  6
PHANTOM
 62
     5
100
AcDbLine
 10
43658.04921
 20
13162.650996
 30
0.0
 11
43679.66921
 21
13119.750996
 31
0.0
  0
LINE
  5
1CD6
100
AcDbEntity
  8
SUPORT2
 62
     5
100
AcDbLine
 10
43653.87921
 20
13195.250996
 30
0.0
 11
43664.58921
 21
13200.650996
 31
0.0
  0
LINE
  5
1CD7
100
AcDbEntity
  8
SUPORT2
  6
PHANTOM
 62
     5
100
AcDbLine
 10
43658.06921
 20
13162.650996
 30
0.0
 11
43659.83921
 21
13168.050996
 31
0.0
  0
LINE
  5
1CD8
100
AcDbEntity
  8
SUPORT2
  6
PHANTOM
 62
     5
100
AcDbLine
 10
43666.11921
 20
13171.150996
 30
0.0
 11
43659.86921
 21
13168.050996
 31
0.0
  0
LINE
  5
1CD9
100
AcDbEntity
  8
SUPORT2
  6
PHANTOM
 62
     5
100
AcDbLine
 10
43679.67921
 20
13119.850996
 30
0.0
 11
43685.04921
 21
13118.050996
 31
0.0
  0
LINE
  5
1CDA
100
AcDbEntity
  8
SUPORT2
 62
     5
100
AcDbLine
 10
43297.12921
 20
13318.950996
 30
0.0
 11
43405.82921
 21
13327.850996
 31
0.0
  0
LINE
  5
1CDB
100
AcDbEntity
  8
SUPORT2
 62
     5
100
AcDbLine
 10
43714.11921
 20
13102.450996
 30
0.0
 11
43703.39921
 21
13097.050996
 31
0.0
  0
LINE
  5
1CDC
100
AcDbEntity
  8
SUPORT2
 62
     5
100
AcDbLine
 10
43730.64921
 20
13105.150996
 30
0.0
 11
43726.21921
 21
13091.750996
 31
0.0
  0
LINE
  5
1CDD
100
AcDbEntity
  8
SUPORT2
 62
     5
100
AcDbLine
 10
43726.21921
 20
13091.750996
 30
0.0
 11
43720.85921
 21
13089.050996
 31
0.0
  0
LINE
  5
1CDE
100
AcDbEntity
  8
SUPORT2
 62
     5
100
AcDbLine
 10
43734.22921
 20
13100.250996
 30
0.0
 11
43732.01921
 21
13093.550996
 31
0.0
  0
LINE
  5
1CDF
100
AcDbEntity
  8
SUPORT2
 62
     5
100
AcDbLine
 10
43736.49921
 20
13090.150996
 30
0.0
 11
43732.01921
 21
13093.550996
 31
0.0
  0
LINE
  5
1CE0
100
AcDbEntity
  8
SUPORT2
  6
PHANTOM
 62
     5
100
AcDbLine
 10
43858.93921
 20
13270.650996
 30
0.0
 11
43885.94921
 21
13217.050996
 31
0.0
  0
LINE
  5
1CE1
100
AcDbEntity
  8
SUPORT2
  6
PHANTOM
 62
     5
100
AcDbLine
 10
43850.89921
 20
13266.650996
 30
0.0
 11
43877.90921
 21
13213.050996
 31
0.0
  0
ARC
  5
1CE2
100
AcDbEntity
  8
SUPORT2
  6
PHANTOM
 62
     5
100
AcDbCircle
 10
43837.53921
 20
13259.950996
 30
0.0
 40
15.0014
100
AcDbArc
 50
26.761885
 51
206.762019
  0
LINE
  5
1CE3
100
AcDbEntity
  8
SUPORT2
  6
PHANTOM
 62
     5
100
AcDbLine
 10
43824.10921
 20
13253.150996
 30
0.0
 11
43851.11921
 21
13199.550996
 31
0.0
  0
LINE
  5
1CE4
100
AcDbEntity
  8
SUPORT2
  6
PHANTOM
 62
     5
100
AcDbLine
 10
43804.25921
 20
13250.350996
 30
0.0
 11
43763.979006
 21
13230.055862
 31
0.0
  0
ARC
  5
1CE5
100
AcDbEntity
  8
SUPORT2
  6
PHANTOM
 62
     5
100
AcDbCircle
 10
43837.53921
 20
13259.950996
 30
0.0
 40
24.0012
100
AcDbArc
 50
26.759994
 51
206.760014
  0
LINE
  5
1CE6
100
AcDbEntity
  8
SUPORT2
  6
PHANTOM
 62
     5
100
AcDbLine
 10
43804.21921
 20
13250.350996
 30
0.0
 11
43837.08921
 21
13185.150996
 31
0.0
  0
LINE
  5
1CE7
100
AcDbEntity
  8
SUPORT2
  6
PHANTOM
 62
     5
100
AcDbLine
 10
43841.81921
 20
13189.250996
 30
0.0
 11
43836.44921
 21
13186.550996
 31
0.0
  0
LINE
  5
1CE8
100
AcDbEntity
  8
SUPORT2
  6
PHANTOM
 62
     5
100
AcDbLine
 10
43841.76921
 20
13189.250996
 30
0.0
 11
43843.54921
 21
13194.650996
 31
0.0
  0
ARC
  5
1CE9
100
AcDbEntity
  8
SUPORT2
  6
PHANTOM
 62
     5
100
AcDbCircle
 10
43864.55921
 20
13206.350996
 30
0.0
 40
24.0012
100
AcDbArc
 50
206.760014
 51
26.759994
  0
ARC
  5
1CEA
100
AcDbEntity
  8
SUPORT2
  6
PHANTOM
 62
     5
100
AcDbCircle
 10
43864.55921
 20
13206.350996
 30
0.0
 40
15.0014
100
AcDbArc
 50
206.762019
 51
26.761885
  0
LINE
  5
1CEB
100
AcDbEntity
  8
SUPORT2
 62
     5
100
AcDbLine
 10
43801.22921
 20
13129.550996
 30
0.0
 11
43795.85921
 21
13126.850996
 31
0.0
  0
LINE
  5
1CEC
100
AcDbEntity
  8
SUPORT2
 62
     5
100
AcDbLine
 10
43805.18921
 20
13148.350996
 30
0.0
 11
43794.47921
 21
13142.950996
 31
0.0
  0
LINE
  5
1CED
100
AcDbEntity
  8
SUPORT2
 62
     5
100
AcDbLine
 10
43790.94921
 20
13123.250996
 30
0.0
 11
43784.22921
 21
13125.450996
 31
0.0
  0
LINE
  5
1CEE
100
AcDbEntity
  8
SUPORT2
 62
     5
100
AcDbLine
 10
43790.94921
 20
13123.250996
 30
0.0
 11
43790.96921
 21
13117.650996
 31
0.0
  0
LINE
  5
1CEF
100
AcDbEntity
  8
SUPORT2
 62
     5
100
AcDbLine
 10
43782.43921
 20
13131.250996
 30
0.0
 11
43795.85921
 21
13126.850996
 31
0.0
  0
LINE
  5
1CF0
100
AcDbEntity
  8
SUPORT2
 62
     5
100
AcDbLine
 10
43755.65921
 20
13246.550996
 30
0.0
 11
43805.18921
 21
13148.350996
 31
0.0
  0
LINE
  5
1CF1
100
AcDbEntity
  8
SUPORT2
  6
PHANTOM
 62
     5
100
AcDbLine
 10
43837.12921
 20
13185.150996
 30
0.0
 11
43796.861364
 21
13164.862089
 31
0.0
  0
LINE
  5
1CF2
100
AcDbEntity
  8
SUPORT2
  6
PHANTOM
 62
     5
100
AcDbLine
 10
43810.28921
 20
13251.750996
 30
0.0
 11
43804.92921
 21
13249.050996
 31
0.0
  0
LINE
  5
1CF3
100
AcDbEntity
  8
SUPORT2
  6
PHANTOM
 62
     5
100
AcDbLine
 10
43810.26921
 20
13251.750996
 30
0.0
 11
43815.64921
 21
13249.950996
 31
0.0
  0
LINE
  5
1CF4
100
AcDbEntity
  8
SUPORT2
 62
     5
100
AcDbLine
 10
43507.48921
 20
13612.250996
 30
0.0
 11
43753.93921
 21
13517.650996
 31
0.0
  0
LINE
  5
1CF5
100
AcDbEntity
  8
SUPORT2
 62
     5
100
AcDbLine
 10
43745.53921
 20
13520.950996
 30
0.0
 11
43753.93921
 21
13517.750996
 31
0.0
  0
LINE
  5
1CF6
100
AcDbEntity
  8
SUPORT2
 62
     5
100
AcDbLine
 10
43503.83921
 20
13613.750996
 30
0.0
 11
43512.23921
 21
13610.550996
 31
0.0
  0
CIRCLE
  5
1CF7
100
AcDbEntity
  8
SUPORT2
 62
     5
100
AcDbCircle
 10
43587.68921
 20
13453.050996
 30
0.0
 40
55.0
  0
CIRCLE
  5
1CF8
100
AcDbEntity
  8
SUPORT2
 62
     5
100
AcDbCircle
 10
43587.68921
 20
13453.050996
 30
0.0
 40
54.9987
  0
CIRCLE
  5
1CF9
100
AcDbEntity
  8
SUPORT2
 62
     5
100
AcDbCircle
 10
43587.68921
 20
13453.050996
 30
0.0
 40
54.9987
  0
TEXT
  5
1D0A
100
AcDbEntity
  8
0
100
AcDbText
 10
35235.802499
 20
19834.342882
 30
0.0
 40
560.0
  1
AR200220P
  7
EXTFONT
100
AcDbText
  0
TEXT
  5
1D0B
100
AcDbEntity
  8
0
100
AcDbText
 10
35069.168158
 20
19001.715074
 30
0.0
 40
560.0
  1
AR-2000M-2
  7
EXTFONT
100
AcDbText
  0
TEXT
  5
1D0C
100
AcDbEntity
  8
0
100
AcDbText
 10
35124.712907
 20
18206.092978
 30
0.0
 40
560.0
  1
ラフィングジブ
  7
EXTFONT
100
AcDbText
  0
LINE
  5
1D0D
100
AcDbEntity
  8
0
100
AcDbLine
 10
30518.091547
 20
18121.384686
 30
0.0
 11
42518.091547
 21
18121.384686
 31
0.0
  0
LINE
  5
1D0E
100
AcDbEntity
  8
0
100
AcDbLine
 10
30518.091547
 20
18921.384686
 30
0.0
 11
42518.091547
 21
18921.384686
 31
0.0
  0
LINE
  5
1D0F
100
AcDbEntity
  8
0
100
AcDbLine
 10
30518.091547
 20
19721.384686
 30
0.0
 11
42518.091547
 21
19721.384686
 31
0.0
  0
LINE
  5
1D10
100
AcDbEntity
  8
0
100
AcDbLine
 10
30518.091547
 20
20521.384686
 30
0.0
 11
42518.091547
 21
20521.384686
 31
0.0
  0
TEXT
  5
1D11
100
AcDbEntity
  8
0
100
AcDbText
 10
30718.160127
 20
19038.720785
 30
0.0
 40
640.0
  1
機　　　種
  7
EXTFONT
100
AcDbText
  0
TEXT
  5
1D12
100
AcDbEntity
  8
0
100
AcDbText
 10
30736.675105
 20
19852.845709
 30
0.0
 40
640.0
  1
ファイル名
  7
EXTFONT
100
AcDbText
  0
TEXT
  5
1D13
100
AcDbEntity
  8
0
100
AcDbText
 10
30699.645241
 20
18169.087322
 30
0.0
 40
640.0
  1
スペック
  7
EXTFONT
100
AcDbText
  0
LINE
  5
1D14
100
AcDbEntity
  8
0
100
AcDbLine
 10
30518.091547
 20
20521.384686
 30
0.0
 11
30518.091547
 21
18121.384686
 31
0.0
  0
LINE
  5
1D15
100
AcDbEntity
  8
0
100
AcDbLine
 10
34939.56368
 20
20521.384686
 30
0.0
 11
34939.56368
 21
18121.384686
 31
0.0
  0
LINE
  5
1D16
100
AcDbEntity
  8
0
100
AcDbLine
 10
42518.091547
 20
20521.384686
 30
0.0
 11
42518.091547
 21
18121.384686
 31
0.0
  0
LINE
  5
1D17
100
AcDbEntity
  8
EXTLJ
 62
     5
100
AcDbLine
 10
25234.459777
 20
11051.381202
 30
0.0
 11
25234.459777
 21
11015.381522
 31
0.0
  0
LINE
  5
1D18
100
AcDbEntity
  8
EXTLJ
  6
CENTER
 62
     5
100
AcDbLine
 10
25190.460577
 20
11311.699922
 30
0.0
 11
25190.460577
 21
10977.655922
 31
0.0
  0
LINE
  5
1D19
100
AcDbEntity
  8
EXTLJ
  6
CENTER
 62
     5
100
AcDbLine
 10
25090.460149
 20
11247.192722
 30
0.0
 11
25090.460149
 21
10981.599922
 31
0.0
  0
LINE
  5
1D1A
100
AcDbEntity
  8
EXTLJ
 62
     5
100
AcDbLine
 10
24955.463777
 20
11247.376722
 30
0.0
 11
24955.463777
 21
10991.381522
 31
0.0
  0
LINE
  5
1D1D
100
AcDbEntity
  8
EXTLJ
 62
     5
100
AcDbLine
 10
23980.313164
 20
11246.237453
 30
0.0
 11
23838.239453
 21
10980.427188
 31
0.0
  0
LINE
  5
1D1E
100
AcDbEntity
  8
EXTLJ
 62
     5
100
AcDbLine
 10
24017.36025
 20
11243.085364
 30
0.0
 11
23878.81119
 21
10983.879161
 31
0.0
  0
LINE
  5
1D1F
100
AcDbEntity
  8
EXTLJ
 62
     5
100
AcDbLine
 10
23951.222977
 20
11119.369851
 30
0.0
 11
24017.337803
 21
10995.66545
 31
0.0
  0
LINE
  5
1D20
100
AcDbEntity
  8
EXTLJ
 62
     5
100
AcDbLine
 10
23931.854977
 20
11083.141442
 30
0.0
 11
23980.291656
 21
10992.513445
 31
0.0
  0
LINE
  5
1D3B
100
AcDbEntity
  8
EXTLJ
 62
     5
100
AcDbLine
 10
21477.870977
 20
10777.244722
 30
0.0
 11
21389.182977
 21
11061.954482
 31
0.0
  0
LINE
  5
1D41
100
AcDbEntity
  8
EXTLJ
 62
     5
100
AcDbLine
 10
21512.814977
 20
10779.929522
 30
0.0
 11
21407.070977
 21
11119.385027
 31
0.0
  0
LINE
  5
1D45
100
AcDbEntity
  8
EXTLJ
  6
CENTER
 62
     5
100
AcDbLine
 10
21090.462977
 20
11595.522322
 30
0.0
 11
21090.462977
 21
10630.690322
 31
0.0
  0
LINE
  5
1D46
100
AcDbEntity
  8
EXTLJ
 62
     5
100
AcDbLine
 10
21205.382977
 20
11482.428178
 30
0.0
 11
21205.382977
 21
10756.324523
 31
0.0
  0
LINE
  5
1D47
100
AcDbEntity
  8
EXTLJ
 62
     5
100
AcDbLine
 10
21239.534977
 20
11479.806147
 30
0.0
 11
21239.534977
 21
10758.946554
 31
0.0
  0
LINE
  5
1D48
100
AcDbEntity
  8
EXTLJ
 62
     5
100
AcDbLine
 10
24955.462177
 20
11075.484082
 30
0.0
 11
21194.454977
 21
10755.485522
 31
0.0
  0
LINE
  5
1D49
100
AcDbEntity
  8
EXTLJ
 62
     5
100
AcDbLine
 10
21477.862977
 20
11461.503922
 30
0.0
 11
21259.490406
 21
10760.478638
 31
0.0
  0
LINE
  5
1D4A
100
AcDbEntity
  8
EXTLJ
 62
     5
100
AcDbLine
 10
21512.806977
 20
11458.821522
 30
0.0
 11
21296.146621
 21
10763.292931
 31
0.0
  0
LINE
  5
1D4B
100
AcDbEntity
  8
EXTLJ
 62
     5
100
AcDbLine
 10
21399.014977
 20
10694.971122
 30
0.0
 11
21199.262977
 21
10679.635122
 31
0.0
  0
LINE
  5
1D4C
100
AcDbEntity
  8
EXTLJ
 62
     5
100
AcDbLine
 10
21154.454977
 20
10761.381522
 30
0.0
 11
21154.454977
 21
10677.381522
 31
0.0
  0
LINE
  5
1D4D
100
AcDbEntity
  8
EXTLJ
 62
     5
100
AcDbLine
 10
21199.286977
 20
10683.647122
 30
0.0
 11
21199.598977
 21
10679.659122
 31
0.0
  0
LINE
  5
1D4E
100
AcDbEntity
  8
EXTLJ
 62
     5
100
AcDbLine
 10
21194.454977
 20
10761.381522
 30
0.0
 11
21194.454977
 21
10677.381522
 31
0.0
  0
LINE
  5
1D4F
100
AcDbEntity
  8
EXTLJ
 62
     5
100
AcDbLine
 10
21154.454977
 20
10677.381522
 30
0.0
 11
21194.454977
 21
10677.381522
 31
0.0
  0
LINE
  5
1D50
100
AcDbEntity
  8
EXTLJ
 62
     5
100
AcDbLine
 10
21154.454977
 20
10761.381522
 30
0.0
 11
21194.454977
 21
10761.381522
 31
0.0
  0
LINE
  5
1D51
100
AcDbEntity
  8
EXTLJ
 62
     5
100
AcDbLine
 10
21199.294977
 20
10683.647122
 30
0.0
 11
21194.494977
 21
10683.278322
 31
0.0
  0
LINE
  5
1D52
100
AcDbEntity
  8
EXTLJ
 62
     5
100
AcDbLine
 10
21199.262977
 20
10683.646511
 30
0.0
 11
21199.262977
 21
10683.645522
 31
0.0
  0
CIRCLE
  5
1D53
100
AcDbEntity
  8
EXTLJ
 62
     5
100
AcDbCircle
 10
21090.462977
 20
10719.381522
 30
0.0
 40
24.0
  0
ARC
  5
1D54
100
AcDbEntity
  8
EXTLJ
 62
     5
100
AcDbCircle
 10
21090.438977
 20
10719.378322
 30
0.0
 40
50.39992
100
AcDbArc
 50
82.098014
 51
277.902004
  0
LINE
  5
1D55
100
AcDbEntity
  8
EXTLJ
 62
     5
100
AcDbLine
 10
21154.454977
 20
10677.381522
 30
0.0
 11
21097.382977
 21
10669.460722
 31
0.0
  0
LINE
  5
1D56
100
AcDbEntity
  8
EXTLJ
 62
     5
100
AcDbLine
 10
21154.446977
 20
10761.382322
 30
0.0
 11
21097.374977
 21
10769.303122
 31
0.0
  0
LINE
  5
1D57
100
AcDbEntity
  8
EXTLJ
 62
     5
100
AcDbLine
 10
24955.462177
 20
11003.275122
 30
0.0
 11
21398.710977
 21
10698.957522
 31
0.0
  0
LINE
  5
1D58
100
AcDbEntity
  8
EXTLJ
 62
     5
100
AcDbLine
 10
21532.742977
 20
10781.446322
 30
0.0
 11
21532.742977
 21
10781.448722
 31
0.0
  0
LINE
  5
1D59
100
AcDbEntity
  8
EXTLJ
 62
     5
100
AcDbLine
 10
21398.692612
 20
10699.163276
 30
0.0
 11
21399.014977
 21
10694.971122
 31
0.0
  0
LINE
  5
1D5A
100
AcDbEntity
  8
EXTLJ
 62
     5
100
AcDbLine
 10
25090.460149
 20
11015.381522
 30
0.0
 11
25234.459777
 21
11015.381522
 31
0.0
  0
LINE
  5
1D5B
100
AcDbEntity
  8
EXTLJ
 62
     5
100
AcDbLine
 10
25208.060577
 20
10999.375922
 30
0.0
 11
25210.460577
 21
11008.333522
 31
0.0
  0
LINE
  5
1D5C
100
AcDbEntity
  8
EXTLJ
 62
     5
100
AcDbLine
 10
25210.458977
 20
11015.381522
 30
0.0
 11
25210.458977
 21
11008.334322
 31
0.0
  0
LINE
  5
1D5D
100
AcDbEntity
  8
EXTLJ
 62
     5
100
AcDbLine
 10
25090.464966
 20
11015.375122
 30
0.0
 11
25005.465377
 21
10991.373522
 31
0.0
  0
LINE
  5
1D5E
100
AcDbEntity
  8
EXTLJ
 62
     5
100
AcDbLine
 10
25170.458977
 20
11015.381522
 30
0.0
 11
25170.458977
 21
11008.334322
 31
0.0
  0
LINE
  5
1D5F
100
AcDbEntity
  8
EXTLJ
 62
     5
100
AcDbLine
 10
25172.860577
 20
10999.375922
 30
0.0
 11
25170.460577
 21
11008.333522
 31
0.0
  0
LINE
  5
1D60
100
AcDbEntity
  8
EXTLJ
 62
     5
100
AcDbLine
 10
25005.463777
 20
10991.381522
 30
0.0
 11
24955.463777
 21
10991.381522
 31
0.0
  0
LINE
  5
1D61
100
AcDbEntity
  8
EXTLJ
 62
     5
100
AcDbLine
 10
25172.858977
 20
10999.377522
 30
0.0
 11
25208.058977
 21
10999.377522
 31
0.0
  0
LINE
  5
1D62
100
AcDbEntity
  8
EXTLJ
  6
CENTER
 62
     5
100
AcDbLine
 10
20907.988072
 20
11119.380172
 30
0.0
 11
25301.404577
 21
11119.380172
 31
0.0
  0
LINE
  5
1D63
100
AcDbEntity
  8
EXTLJ
 62
     5
100
AcDbLine
 10
21194.486977
 20
11483.264722
 30
0.0
 11
24955.462177
 21
11163.268562
 31
0.0
  0
LINE
  5
1D64
100
AcDbEntity
  8
EXTLJ
 62
     5
100
AcDbLine
 10
21371.294977
 20
11119.385
 30
0.0
 11
21259.49728
 21
11478.273534
 31
0.0
  0
LINE
  5
1D65
100
AcDbEntity
  8
EXTLJ
 62
     5
100
AcDbLine
 10
21199.598977
 20
11559.094322
 30
0.0
 11
21399.014977
 21
11543.783922
 31
0.0
  0
LINE
  5
1D66
100
AcDbEntity
  8
EXTLJ
 62
     5
100
AcDbLine
 10
21389.182977
 20
11176.808082
 30
0.0
 11
21296.15303
 21
11475.459277
 31
0.0
  0
LINE
  5
1D67
100
AcDbEntity
  8
EXTLJ
 62
     5
100
AcDbLine
 10
21154.446977
 20
11561.376722
 30
0.0
 11
21097.374977
 21
11569.297522
 31
0.0
  0
ARC
  5
1D68
100
AcDbEntity
  8
EXTLJ
 62
     5
100
AcDbCircle
 10
21090.438977
 20
11519.372722
 30
0.0
 40
50.39992
100
AcDbArc
 50
82.098014
 51
277.902004
  0
LINE
  5
1D69
100
AcDbEntity
  8
EXTLJ
 62
     5
100
AcDbLine
 10
21154.454977
 20
11561.375922
 30
0.0
 11
21199.574977
 21
11561.375922
 31
0.0
  0
LINE
  5
1D6A
100
AcDbEntity
  8
EXTLJ
 62
     5
100
AcDbLine
 10
21199.574977
 20
11561.375922
 30
0.0
 11
21199.574977
 21
11559.097522
 31
0.0
  0
LINE
  5
1D6B
100
AcDbEntity
  8
EXTLJ
 62
     5
100
AcDbLine
 10
21199.598977
 20
11559.094322
 30
0.0
 11
21199.286977
 21
11555.105522
 31
0.0
  0
LINE
  5
1D6C
100
AcDbEntity
  8
EXTLJ
 62
     5
100
AcDbLine
 10
21154.454977
 20
11477.375922
 30
0.0
 11
21194.454977
 21
11477.375922
 31
0.0
  0
LINE
  5
1D6D
100
AcDbEntity
  8
EXTLJ
 62
     5
100
AcDbLine
 10
21154.454977
 20
11477.375922
 30
0.0
 11
21097.382977
 21
11469.455122
 31
0.0
  0
POINT
  5
1D6E
100
AcDbEntity
  8
EXTLJ
 62
     5
100
AcDbPoint
 10
21090.462977
 20
11119.380172
 30
0.0
  0
LINE
  5
1D6F
100
AcDbEntity
  8
EXTLJ
 62
     5
100
AcDbLine
 10
21194.454977
 20
11561.375922
 30
0.0
 11
21194.454977
 21
11477.375922
 31
0.0
  0
LINE
  5
1D70
100
AcDbEntity
  8
EXTLJ
 62
     5
100
AcDbLine
 10
21154.454977
 20
11561.375922
 30
0.0
 11
21154.454977
 21
11477.375922
 31
0.0
  0
CIRCLE
  5
1D71
100
AcDbEntity
  8
EXTLJ
 62
     5
100
AcDbCircle
 10
21090.462977
 20
11519.375922
 30
0.0
 40
24.0
  0
LINE
  5
1D72
100
AcDbEntity
  8
EXTLJ
 62
     5
100
AcDbLine
 10
21398.710977
 20
11539.795122
 30
0.0
 11
24955.462177
 21
11235.478322
 31
0.0
  0
LINE
  5
1D77
100
AcDbEntity
  8
EXTLJ
 62
     5
100
AcDbLine
 10
21392.390977
 20
11468.071122
 30
0.0
 11
21392.078977
 21
11464.083122
 31
0.0
  0
LINE
  5
1D78
100
AcDbEntity
  8
EXTLJ
 62
     5
100
AcDbLine
 10
21399.014977
 20
11543.783922
 30
0.0
 11
21397.726977
 21
11527.033522
 31
0.0
  0
LINE
  5
1D87
100
AcDbEntity
  8
EXTLJ
 62
     5
100
AcDbLine
 10
23838.221797
 20
11258.327054
 30
0.0
 11
23912.486977
 21
11119.369401
 31
0.0
  0
LINE
  5
1D88
100
AcDbEntity
  8
EXTLJ
 62
     5
100
AcDbLine
 10
23878.79523
 20
11254.874933
 30
0.0
 11
23931.854977
 21
11155.604722
 31
0.0
  0
LINE
  5
1D89
100
AcDbEntity
  8
EXTLJ
 62
     5
100
AcDbLine
 10
25215.660577
 20
11259.375922
 30
0.0
 11
25216.460577
 21
11258.575922
 31
0.0
  0
LINE
  5
1D8A
100
AcDbEntity
  8
EXTLJ
 62
     5
100
AcDbLine
 10
25090.460149
 20
11223.376722
 30
0.0
 11
25234.459777
 21
11223.376722
 31
0.0
  0
LINE
  5
1D8B
100
AcDbEntity
  8
EXTLJ
 62
     5
100
AcDbLine
 10
25090.460149
 20
11183.376802
 30
0.0
 11
25230.459777
 21
11183.376802
 31
0.0
  0
LINE
  5
1D8C
100
AcDbEntity
  8
EXTLJ
 62
     5
100
AcDbLine
 10
25090.460149
 20
11055.381522
 30
0.0
 11
25230.460577
 21
11055.381522
 31
0.0
  0
LINE
  5
1D8D
100
AcDbEntity
  8
EXTLJ
 62
     5
100
AcDbLine
 10
24683.617777
 20
11264.370322
 30
0.0
 11
24683.004977
 21
11256.394322
 31
0.0
  0
LINE
  5
1D8E
100
AcDbEntity
  8
EXTLJ
 62
     5
100
AcDbLine
 10
25214.460577
 20
11268.975922
 30
0.0
 11
25212.060577
 21
11271.375922
 31
0.0
  0
LINE
  5
1D8F
100
AcDbEntity
  8
EXTLJ
 62
     5
100
AcDbLine
 10
25214.458977
 20
11268.976722
 30
0.0
 11
25214.458977
 21
11259.376722
 31
0.0
  0
LINE
  5
1D90
100
AcDbEntity
  8
EXTLJ
 62
     5
100
AcDbLine
 10
25005.460577
 20
11247.374322
 30
0.0
 11
25090.460903
 21
11223.371922
 31
0.0
  0
LINE
  5
1D91
100
AcDbEntity
  8
EXTLJ
 62
     5
100
AcDbLine
 10
25164.460177
 20
11258.575922
 30
0.0
 11
25164.460177
 21
11223.376722
 31
0.0
  0
LINE
  5
1D92
100
AcDbEntity
  8
EXTLJ
 62
     5
100
AcDbLine
 10
25130.460657
 20
11179.375922
 30
0.0
 11
25134.460657
 21
11183.375842
 31
0.0
  0
LINE
  5
1D93
100
AcDbEntity
  8
EXTLJ
 62
     5
100
AcDbLine
 10
25130.460257
 20
11179.376642
 30
0.0
 11
25130.460257
 21
11169.340242
 31
0.0
  0
LINE
  5
1D94
100
AcDbEntity
  8
EXTLJ
 62
     5
100
AcDbLine
 10
25166.460417
 20
11268.975922
 30
0.0
 11
25168.860337
 21
11271.375922
 31
0.0
  0
LINE
  5
1D95
100
AcDbEntity
  8
EXTLJ
 62
     5
100
AcDbLine
 10
25166.459377
 20
11268.976722
 30
0.0
 11
25166.459377
 21
11259.376722
 31
0.0
  0
LINE
  5
1D96
100
AcDbEntity
  8
EXTLJ
 62
     5
100
AcDbLine
 10
25164.460657
 20
11258.575922
 30
0.0
 11
25165.260577
 21
11259.375922
 31
0.0
  0
LINE
  5
1D97
100
AcDbEntity
  8
EXTLJ
 62
     5
100
AcDbLine
 10
25130.460817
 20
11059.380882
 30
0.0
 11
25134.460817
 21
11055.380962
 31
0.0
  0
LINE
  5
1D98
100
AcDbEntity
  8
EXTLJ
 62
     5
100
AcDbLine
 10
25130.460257
 20
11069.420722
 30
0.0
 11
25130.460257
 21
11059.382002
 31
0.0
  0
ARC
  5
1D99
100
AcDbEntity
  8
EXTLJ
 62
     5
100
AcDbCircle
 10
25090.458782
 20
11119.380722
 30
0.0
 40
63.99992
100
AcDbArc
 50
308.681986
 51
51.317824
  0
ARC
  5
1D9A
100
AcDbEntity
  8
EXTLJ
 62
     5
100
AcDbCircle
 10
25090.458977
 20
11119.380722
 30
0.0
 40
64.0
100
AcDbArc
 50
89.629793
 51
270.000001
  0
LINE
  5
1D9B
100
AcDbEntity
  8
EXTLJ
 62
     5
100
AcDbLine
 10
24955.463777
 20
11247.376722
 30
0.0
 11
25005.463777
 21
11247.376722
 31
0.0
  0
CIRCLE
  5
1D9C
100
AcDbEntity
  8
EXTLJ
 62
     5
100
AcDbCircle
 10
25090.460149
 20
11323.376722
 30
0.0
 40
25.0
  0
LINE
  5
1D9D
100
AcDbEntity
  8
EXTLJ
 62
     5
100
AcDbLine
 10
24982.492021
 20
11247.376722
 30
0.0
 11
25048.340049
 21
11350.319201
 31
0.0
  0
LINE
  5
1D9E
100
AcDbEntity
  8
EXTLJ
 62
     5
100
AcDbLine
 10
25157.264245
 20
11223.376722
 30
0.0
 11
25139.820129
 21
11331.35121
 31
0.0
  0
ARC
  5
1D9F
100
AcDbEntity
  8
EXTLJ
 62
     5
100
AcDbCircle
 10
25090.460149
 20
11323.376722
 30
0.0
 40
50.0
100
AcDbArc
 50
9.177281
 51
147.394641
  0
LINE
  5
1DA0
100
AcDbEntity
  8
EXTLJ
 62
     5
100
AcDbLine
 10
25165.259137
 20
11259.376722
 30
0.0
 11
25215.658977
 21
11259.376722
 31
0.0
  0
LINE
  5
1DA1
100
AcDbEntity
  8
EXTLJ
 62
     5
100
AcDbLine
 10
25168.859137
 20
11271.376722
 30
0.0
 11
25212.058977
 21
11271.376722
 31
0.0
  0
POINT
  5
1DA2
100
AcDbEntity
  8
EXTLJ
 62
     5
100
AcDbPoint
 10
25090.460149
 20
11119.380172
 30
0.0
  0
LINE
  5
1DA3
100
AcDbEntity
  8
EXTLJ
 62
     5
100
AcDbLine
 10
25246.459777
 20
11175.780162
 30
0.0
 11
25230.460577
 21
11175.780162
 31
0.0
  0
LINE
  5
1DA4
100
AcDbEntity
  8
EXTLJ
 62
     5
100
AcDbLine
 10
25246.459777
 20
11165.379922
 30
0.0
 11
25230.460577
 21
11165.379922
 31
0.0
  0
LINE
  5
1DA5
100
AcDbEntity
  8
EXTLJ
 62
     5
100
AcDbLine
 10
25246.459777
 20
11062.980562
 30
0.0
 11
25230.460577
 21
11062.980562
 31
0.0
  0
LINE
  5
1DA6
100
AcDbEntity
  8
EXTLJ
 62
     5
100
AcDbLine
 10
25246.459777
 20
11073.380402
 30
0.0
 11
25230.460577
 21
11073.380402
 31
0.0
  0
LINE
  5
1DA7
100
AcDbEntity
  8
EXTLJ
 62
     5
100
AcDbLine
 10
25216.459777
 20
11258.575922
 30
0.0
 11
25216.459777
 21
11223.376722
 31
0.0
  0
LINE
  5
1DA8
100
AcDbEntity
  8
EXTLJ
 62
     5
100
AcDbLine
 10
25234.470977
 20
11187.367602
 30
0.0
 11
25226.469377
 21
11183.367042
 31
0.0
  0
LINE
  5
1DA9
100
AcDbEntity
  8
EXTLJ
 62
     5
100
AcDbLine
 10
25234.459777
 20
11223.376722
 30
0.0
 11
25234.459777
 21
11187.376722
 31
0.0
  0
LINE
  5
1DAA
100
AcDbEntity
  8
EXTLJ
 62
     5
100
AcDbLine
 10
25226.469377
 20
11055.393282
 30
0.0
 11
25234.470977
 21
11051.392722
 31
0.0
  0
LINE
  5
1DAB
100
AcDbEntity
  8
EXTLJ
 62
     5
100
AcDbLine
 10
25230.460577
 20
11183.376882
 30
0.0
 11
25230.460577
 21
11055.382002
 31
0.0
  0
ARC
  5
1DAC
100
AcDbEntity
  8
EXTLJ
 62
     5
100
AcDbCircle
 10
25246.458977
 20
11141.380642
 30
0.0
 40
34.4
100
AcDbArc
 50
0.0
 51
89.999981
  0
ARC
  5
1DAD
100
AcDbEntity
  8
EXTLJ
 62
     5
100
AcDbCircle
 10
25246.458977
 20
11141.380642
 30
0.0
 40
24.0
100
AcDbArc
 50
0.0
 51
89.999981
  0
ARC
  5
1DAE
100
AcDbEntity
  8
EXTLJ
 62
     5
100
AcDbCircle
 10
25246.458977
 20
11097.380562
 30
0.0
 40
34.4
100
AcDbArc
 50
270.000001
 51
0.0
  0
ARC
  5
1DAF
100
AcDbEntity
  8
EXTLJ
 62
     5
100
AcDbCircle
 10
25246.458977
 20
11097.380562
 30
0.0
 40
24.0
100
AcDbArc
 50
270.000001
 51
0.0
  0
LINE
  5
1DB0
100
AcDbEntity
  8
EXTLJ
 62
     5
100
AcDbLine
 10
25280.860577
 20
11141.380562
 30
0.0
 11
25280.860577
 21
11097.380642
 31
0.0
  0
LINE
  5
1DB1
100
AcDbEntity
  8
EXTLJ
 62
     5
100
AcDbLine
 10
25270.460577
 20
11141.380562
 30
0.0
 11
25270.460577
 21
11097.380722
 31
0.0
  0
LINE
  5
1DB2
100
AcDbEntity
  8
EXTLJ
  6
CENTER
 62
     5
100
AcDbLine
 10
15925.930386
 20
11119.379321
 30
0.0
 11
21201.804188
 21
11119.380172
 31
0.0
  0
LINE
  5
1DB3
100
AcDbEntity
  8
EXTLJ
 62
     5
100
AcDbLine
 10
16399.262977
 20
10683.386521
 30
0.0
 11
20781.662977
 21
10683.386521
 31
0.0
  0
LINE
  5
1DB4
100
AcDbEntity
  8
EXTLJ
 62
     5
100
AcDbLine
 10
16194.462977
 20
10755.385721
 30
0.0
 11
20986.462977
 21
10755.385721
 31
0.0
  0
LINE
  5
1DB5
100
AcDbEntity
  8
EXTLJ
 62
     5
100
AcDbLine
 10
20986.462977
 20
11483.376121
 30
0.0
 11
16194.462977
 21
11483.376121
 31
0.0
  0
LINE
  5
1DB6
100
AcDbEntity
  8
EXTLJ
 62
     5
100
AcDbLine
 10
20781.662977
 20
11555.372921
 30
0.0
 11
16399.262977
 21
11555.372921
 31
0.0
  0
LINE
  5
1DC0
100
AcDbEntity
  8
EXTLJ
 62
     5
100
AcDbLine
 10
16318.216273
 20
10755.385721
 30
0.0
 11
16582.628526
 21
11483.376121
 31
0.0
  0
LINE
  5
1DC1
100
AcDbEntity
  8
EXTLJ
 62
     5
100
AcDbLine
 10
16279.537901
 20
10755.385721
 30
0.0
 11
16543.869712
 21
11483.376121
 31
0.0
  0
LINE
  5
1DC2
100
AcDbEntity
  8
EXTLJ
 62
     5
100
AcDbLine
 10
16249.255759
 20
11483.376121
 30
0.0
 11
16249.255759
 21
10755.385721
 31
0.0
  0
LINE
  5
1DC3
100
AcDbEntity
  8
EXTLJ
 62
     5
100
AcDbLine
 10
16212.879945
 20
11483.376121
 30
0.0
 11
16212.879945
 21
10755.385721
 31
0.0
  0
LINE
  5
1DC8
100
AcDbEntity
  8
EXTLJ
 62
     5
100
AcDbLine
 10
16431.049642
 20
11172.651402
 30
0.0
 11
16318.213453
 21
11483.376121
 31
0.0
  0
LINE
  5
1DC9
100
AcDbEntity
  8
EXTLJ
 62
     5
100
AcDbLine
 10
16411.711679
 20
11119.374688
 30
0.0
 11
16279.536787
 21
11483.376121
 31
0.0
  0
LINE
  5
1DCA
100
AcDbEntity
  8
EXTLJ
  6
CENTER
 62
     5
100
AcDbLine
 10
16090.462977
 20
11626.408762
 30
0.0
 11
16090.462977
 21
10598.996462
 31
0.0
  0
CIRCLE
  5
1DCE
100
AcDbEntity
  8
EXTLJ
 62
     5
100
AcDbCircle
 10
16090.462977
 20
10719.385721
 30
0.0
 40
24.0
  0
ARC
  5
1DCF
100
AcDbEntity
  8
EXTLJ
 62
     5
100
AcDbCircle
 10
16090.462977
 20
10719.390521
 30
0.0
 40
50.40008
100
AcDbArc
 50
82.097022
 51
277.902903
  0
POINT
  5
1DD0
100
AcDbEntity
  8
EXTLJ
 62
     5
100
AcDbPoint
 10
16090.462977
 20
11119.379321
 30
0.0
  0
LINE
  5
1DD3
100
AcDbEntity
  8
EXTLJ
 62
     5
100
AcDbLine
 10
16582.624547
 20
10755.385721
 30
0.0
 11
16450.387604
 21
11119.372509
 31
0.0
  0
LINE
  5
1DD4
100
AcDbEntity
  8
EXTLJ
 62
     5
100
AcDbLine
 10
16543.947096
 20
10755.385721
 30
0.0
 11
16431.049642
 21
11066.095823
 31
0.0
  0
LINE
  5
1DD5
100
AcDbEntity
  8
EXTLJ
 62
     5
100
AcDbLine
 10
16199.262977
 20
10679.386521
 30
0.0
 11
16399.262977
 21
10679.386521
 31
0.0
  0
LINE
  5
1DD6
100
AcDbEntity
  8
EXTLJ
 62
     5
100
AcDbLine
 10
16194.462977
 20
10683.386521
 30
0.0
 11
16199.262977
 21
10683.386521
 31
0.0
  0
LINE
  5
1DD7
100
AcDbEntity
  8
EXTLJ
 62
     5
100
AcDbLine
 10
16194.462977
 20
10761.385721
 30
0.0
 11
16194.462977
 21
10677.386521
 31
0.0
  0
LINE
  5
1DD8
100
AcDbEntity
  8
EXTLJ
 62
     5
100
AcDbLine
 10
16199.262977
 20
10683.386521
 30
0.0
 11
16199.262977
 21
10679.386521
 31
0.0
  0
LINE
  5
1DD9
100
AcDbEntity
  8
EXTLJ
 62
     5
100
AcDbLine
 10
16399.262977
 20
10683.386521
 30
0.0
 11
16399.262977
 21
10679.386521
 31
0.0
  0
LINE
  5
1DDA
100
AcDbEntity
  8
EXTLJ
 62
     5
100
AcDbLine
 10
16154.462977
 20
10761.385721
 30
0.0
 11
16154.462977
 21
10677.386521
 31
0.0
  0
LINE
  5
1DDB
100
AcDbEntity
  8
EXTLJ
 62
     5
100
AcDbLine
 10
16154.462977
 20
10761.387321
 30
0.0
 11
16097.342977
 21
10769.308121
 31
0.0
  0
LINE
  5
1DDC
100
AcDbEntity
  8
EXTLJ
 62
     5
100
AcDbLine
 10
16154.462977
 20
10677.386521
 30
0.0
 11
16097.342977
 21
10669.465721
 31
0.0
  0
LINE
  5
1DDD
100
AcDbEntity
  8
EXTLJ
 62
     5
100
AcDbLine
 10
16154.462977
 20
10677.386521
 30
0.0
 11
16194.462977
 21
10677.386521
 31
0.0
  0
LINE
  5
1DDE
100
AcDbEntity
  8
EXTLJ
 62
     5
100
AcDbLine
 10
16154.462977
 20
10761.385721
 30
0.0
 11
16194.462977
 21
10761.385721
 31
0.0
  0
CIRCLE
  5
1DE3
100
AcDbEntity
  8
EXTLJ
 62
     5
100
AcDbCircle
 10
16090.462977
 20
11519.379321
 30
0.0
 40
24.0
  0
ARC
  5
1DE4
100
AcDbEntity
  8
EXTLJ
 62
     5
100
AcDbCircle
 10
16090.462977
 20
11519.383321
 30
0.0
 40
50.40008
100
AcDbArc
 50
82.097022
 51
277.902903
  0
LINE
  5
1DE5
100
AcDbEntity
  8
EXTLJ
 62
     5
100
AcDbLine
 10
16399.262977
 20
11559.372921
 30
0.0
 11
16199.262977
 21
11559.372921
 31
0.0
  0
LINE
  5
1DE6
100
AcDbEntity
  8
EXTLJ
 62
     5
100
AcDbLine
 10
16194.462977
 20
11561.376121
 30
0.0
 11
16194.462977
 21
11477.379321
 31
0.0
  0
LINE
  5
1DE7
100
AcDbEntity
  8
EXTLJ
 62
     5
100
AcDbLine
 10
16199.262977
 20
11483.376121
 30
0.0
 11
16199.262977
 21
11479.376121
 31
0.0
  0
LINE
  5
1DE8
100
AcDbEntity
  8
EXTLJ
 62
     5
100
AcDbLine
 10
16199.262977
 20
11555.372921
 30
0.0
 11
16194.462977
 21
11555.372921
 31
0.0
  0
LINE
  5
1DE9
100
AcDbEntity
  8
EXTLJ
 62
     5
100
AcDbLine
 10
16199.262977
 20
11559.372921
 30
0.0
 11
16199.262977
 21
11555.372921
 31
0.0
  0
LINE
  5
1DEA
100
AcDbEntity
  8
EXTLJ
 62
     5
100
AcDbLine
 10
16399.262977
 20
11559.372921
 30
0.0
 11
16399.262977
 21
11555.372921
 31
0.0
  0
LINE
  5
1DEB
100
AcDbEntity
  8
EXTLJ
 62
     5
100
AcDbLine
 10
16154.462977
 20
11561.376121
 30
0.0
 11
16154.462977
 21
11477.379321
 31
0.0
  0
LINE
  5
1DEC
100
AcDbEntity
  8
EXTLJ
 62
     5
100
AcDbLine
 10
16154.462977
 20
11561.380121
 30
0.0
 11
16097.342977
 21
11569.300921
 31
0.0
  0
LINE
  5
1DED
100
AcDbEntity
  8
EXTLJ
 62
     5
100
AcDbLine
 10
16154.462977
 20
11477.379321
 30
0.0
 11
16097.342977
 21
11469.458521
 31
0.0
  0
LINE
  5
1DEE
100
AcDbEntity
  8
EXTLJ
 62
     5
100
AcDbLine
 10
16154.462977
 20
11477.379321
 30
0.0
 11
16194.462977
 21
11477.379321
 31
0.0
  0
LINE
  5
1DEF
100
AcDbEntity
  8
EXTLJ
 62
     5
100
AcDbLine
 10
16154.462977
 20
11561.376121
 30
0.0
 11
16194.462977
 21
11561.376121
 31
0.0
  0
ARC
  5
1DF0
100
AcDbEntity
  8
EXTLJ
 62
     5
100
AcDbCircle
 10
21090.462977
 20
10719.380921
 30
0.0
 40
50.40008
100
AcDbArc
 50
262.097022
 51
97.902903
  0
CIRCLE
  5
1DF1
100
AcDbEntity
  8
EXTLJ
 62
     5
100
AcDbCircle
 10
21090.462977
 20
10719.381721
 30
0.0
 40
24.0
  0
POINT
  5
1DF2
100
AcDbEntity
  8
EXTLJ
 62
     5
100
AcDbPoint
 10
21090.462977
 20
11119.380172
 30
0.0
  0
ARC
  5
1DF3
100
AcDbEntity
  8
EXTLJ
 62
     5
100
AcDbCircle
 10
21090.462977
 20
11519.379321
 30
0.0
 40
50.40008
100
AcDbArc
 50
262.097022
 51
97.902903
  0
CIRCLE
  5
1DF4
100
AcDbEntity
  8
EXTLJ
 62
     5
100
AcDbCircle
 10
21090.462977
 20
11519.375321
 30
0.0
 40
24.0
  0
LINE
  5
1E10
100
AcDbEntity
  8
EXTLJ
 62
     5
100
AcDbLine
 10
20968.131199
 20
10755.385721
 30
0.0
 11
20968.131199
 21
11483.376121
 31
0.0
  0
LINE
  5
1E11
100
AcDbEntity
  8
EXTLJ
 62
     5
100
AcDbLine
 10
20931.755385
 20
10755.385721
 30
0.0
 11
20931.755385
 21
11483.376121
 31
0.0
  0
LINE
  5
1E14
100
AcDbEntity
  8
EXTLJ
 62
     5
100
AcDbLine
 10
20901.749542
 20
10755.385721
 30
0.0
 11
20645.990666
 21
11483.376121
 31
0.0
  0
LINE
  5
1E15
100
AcDbEntity
  8
EXTLJ
 62
     5
100
AcDbLine
 10
20863.241401
 20
10755.385721
 30
0.0
 11
20607.402526
 21
11483.376121
 31
0.0
  0
LINE
  5
1E16
100
AcDbEntity
  8
EXTLJ
 62
     5
100
AcDbLine
 10
20901.471561
 20
11483.376121
 30
0.0
 11
20769.299465
 21
11119.382989
 31
0.0
  0
LINE
  5
1E17
100
AcDbEntity
  8
EXTLJ
 62
     5
100
AcDbLine
 10
20754.574999
 20
11174.24589
 30
0.0
 11
20863.23905
 21
11483.376121
 31
0.0
  0
LINE
  5
1E1B
100
AcDbEntity
  8
EXTLJ
  6
CENTER
 62
     5
100
AcDbLine
 10
21090.462977
 20
11626.409614
 30
0.0
 11
21090.462977
 21
10598.997314
 31
0.0
  0
LINE
  5
1E2E
100
AcDbEntity
  8
EXTLJ
 62
     5
100
AcDbLine
 10
20607.402161
 20
10755.385721
 30
0.0
 11
20735.322226
 21
11119.382395
 31
0.0
  0
LINE
  5
1E2F
100
AcDbEntity
  8
EXTLJ
 62
     5
100
AcDbLine
 10
20645.98861
 20
10755.385721
 30
0.0
 11
20754.574999
 21
11064.516926
 31
0.0
  0
LINE
  5
1E30
100
AcDbEntity
  8
EXTLJ
 62
     5
100
AcDbLine
 10
20781.662977
 20
10679.386521
 30
0.0
 11
20981.662977
 21
10679.386521
 31
0.0
  0
LINE
  5
1E31
100
AcDbEntity
  8
EXTLJ
 62
     5
100
AcDbLine
 10
20781.662977
 20
10679.386521
 30
0.0
 11
20781.662977
 21
10683.386521
 31
0.0
  0
LINE
  5
1E32
100
AcDbEntity
  8
EXTLJ
 62
     5
100
AcDbLine
 10
20981.662977
 20
10679.386521
 30
0.0
 11
20981.662977
 21
10683.386521
 31
0.0
  0
LINE
  5
1E33
100
AcDbEntity
  8
EXTLJ
 62
     5
100
AcDbLine
 10
21026.462977
 20
10677.386521
 30
0.0
 11
21026.462977
 21
10761.385721
 31
0.0
  0
LINE
  5
1E34
100
AcDbEntity
  8
EXTLJ
 62
     5
100
AcDbLine
 10
20981.662977
 20
10683.386521
 30
0.0
 11
20986.462977
 21
10683.386521
 31
0.0
  0
LINE
  5
1E35
100
AcDbEntity
  8
EXTLJ
 62
     5
100
AcDbLine
 10
20986.462977
 20
10677.386521
 30
0.0
 11
20986.462977
 21
10761.385721
 31
0.0
  0
LINE
  5
1E36
100
AcDbEntity
  8
EXTLJ
 62
     5
100
AcDbLine
 10
20986.462977
 20
10761.385721
 30
0.0
 11
21026.462977
 21
10761.385721
 31
0.0
  0
LINE
  5
1E37
100
AcDbEntity
  8
EXTLJ
 62
     5
100
AcDbLine
 10
20986.462977
 20
10677.386521
 30
0.0
 11
21026.462977
 21
10677.386521
 31
0.0
  0
LINE
  5
1E38
100
AcDbEntity
  8
EXTLJ
 62
     5
100
AcDbLine
 10
21026.462977
 20
10677.384921
 30
0.0
 11
21083.582977
 21
10669.463321
 31
0.0
  0
LINE
  5
1E39
100
AcDbEntity
  8
EXTLJ
 62
     5
100
AcDbLine
 10
21026.462977
 20
10761.380921
 30
0.0
 11
21083.582977
 21
10769.302521
 31
0.0
  0
LINE
  5
1E3A
100
AcDbEntity
  8
EXTLJ
 62
     5
100
AcDbLine
 10
20981.662977
 20
11559.372921
 30
0.0
 11
20781.662977
 21
11559.372921
 31
0.0
  0
LINE
  5
1E3B
100
AcDbEntity
  8
EXTLJ
 62
     5
100
AcDbLine
 10
20781.662977
 20
11555.372921
 30
0.0
 11
20781.662977
 21
11559.372921
 31
0.0
  0
LINE
  5
1E3C
100
AcDbEntity
  8
EXTLJ
 62
     5
100
AcDbLine
 10
20981.662977
 20
11555.372921
 30
0.0
 11
20981.662977
 21
11559.372921
 31
0.0
  0
LINE
  5
1E3D
100
AcDbEntity
  8
EXTLJ
 62
     5
100
AcDbLine
 10
20986.462977
 20
11555.372921
 30
0.0
 11
20981.662977
 21
11555.372921
 31
0.0
  0
LINE
  5
1E3E
100
AcDbEntity
  8
EXTLJ
 62
     5
100
AcDbLine
 10
20986.462977
 20
11561.376121
 30
0.0
 11
21026.462977
 21
11561.376121
 31
0.0
  0
LINE
  5
1E3F
100
AcDbEntity
  8
EXTLJ
 62
     5
100
AcDbLine
 10
20986.462977
 20
11477.379321
 30
0.0
 11
21026.462977
 21
11477.379321
 31
0.0
  0
LINE
  5
1E40
100
AcDbEntity
  8
EXTLJ
 62
     5
100
AcDbLine
 10
21026.462977
 20
11477.379321
 30
0.0
 11
21026.462977
 21
11561.376121
 31
0.0
  0
LINE
  5
1E41
100
AcDbEntity
  8
EXTLJ
 62
     5
100
AcDbLine
 10
20986.462977
 20
11477.379321
 30
0.0
 11
20986.462977
 21
11561.376121
 31
0.0
  0
LINE
  5
1E42
100
AcDbEntity
  8
EXTLJ
 62
     5
100
AcDbLine
 10
21026.462977
 20
11561.383321
 30
0.0
 11
21083.582977
 21
11569.304121
 31
0.0
  0
LINE
  5
1E43
100
AcDbEntity
  8
EXTLJ
 62
     5
100
AcDbLine
 10
21026.462977
 20
11477.382521
 30
0.0
 11
21083.582977
 21
11469.461721
 31
0.0
  0
LINE
  5
1E44
100
AcDbEntity
  8
EXTLJ
  6
CENTER
 62
     5
100
AcDbLine
 10
10925.930386
 20
11119.378469
 30
0.0
 11
16201.804188
 21
11119.379321
 31
0.0
  0
LINE
  5
1E45
100
AcDbEntity
  8
EXTLJ
 62
     5
100
AcDbLine
 10
11399.262977
 20
10683.385669
 30
0.0
 11
15781.662977
 21
10683.385669
 31
0.0
  0
LINE
  5
1E46
100
AcDbEntity
  8
EXTLJ
 62
     5
100
AcDbLine
 10
11194.462977
 20
10755.384869
 30
0.0
 11
15986.462977
 21
10755.384869
 31
0.0
  0
LINE
  5
1E47
100
AcDbEntity
  8
EXTLJ
 62
     5
100
AcDbLine
 10
15986.462977
 20
11483.375269
 30
0.0
 11
11194.462977
 21
11483.375269
 31
0.0
  0
LINE
  5
1E48
100
AcDbEntity
  8
EXTLJ
 62
     5
100
AcDbLine
 10
15781.662977
 20
11555.372069
 30
0.0
 11
11399.262977
 21
11555.372069
 31
0.0
  0
LINE
  5
1E52
100
AcDbEntity
  8
EXTLJ
 62
     5
100
AcDbLine
 10
11318.216273
 20
10755.384869
 30
0.0
 11
11582.628526
 21
11483.375269
 31
0.0
  0
LINE
  5
1E53
100
AcDbEntity
  8
EXTLJ
 62
     5
100
AcDbLine
 10
11279.537901
 20
10755.384869
 30
0.0
 11
11543.869712
 21
11483.375269
 31
0.0
  0
LINE
  5
1E54
100
AcDbEntity
  8
EXTLJ
 62
     5
100
AcDbLine
 10
11249.255759
 20
11483.375269
 30
0.0
 11
11249.255759
 21
10755.384869
 31
0.0
  0
LINE
  5
1E55
100
AcDbEntity
  8
EXTLJ
 62
     5
100
AcDbLine
 10
11212.879945
 20
11483.375269
 30
0.0
 11
11212.879945
 21
10755.384869
 31
0.0
  0
LINE
  5
1E5A
100
AcDbEntity
  8
EXTLJ
 62
     5
100
AcDbLine
 10
11431.049642
 20
11172.650551
 30
0.0
 11
11318.213453
 21
11483.375269
 31
0.0
  0
LINE
  5
1E5B
100
AcDbEntity
  8
EXTLJ
 62
     5
100
AcDbLine
 10
11411.711679
 20
11119.373836
 30
0.0
 11
11279.536787
 21
11483.375269
 31
0.0
  0
LINE
  5
1E5C
100
AcDbEntity
  8
EXTLJ
  6
CENTER
 62
     5
100
AcDbLine
 10
11090.462977
 20
11626.40791
 30
0.0
 11
11090.462977
 21
10598.99561
 31
0.0
  0
CIRCLE
  5
1E60
100
AcDbEntity
  8
EXTLJ
 62
     5
100
AcDbCircle
 10
11090.462977
 20
10719.384869
 30
0.0
 40
24.0
  0
ARC
  5
1E61
100
AcDbEntity
  8
EXTLJ
 62
     5
100
AcDbCircle
 10
11090.462977
 20
10719.389669
 30
0.0
 40
50.40008
100
AcDbArc
 50
82.097022
 51
277.902903
  0
POINT
  5
1E62
100
AcDbEntity
  8
EXTLJ
 62
     5
100
AcDbPoint
 10
11090.462977
 20
11119.378469
 30
0.0
  0
LINE
  5
1E65
100
AcDbEntity
  8
EXTLJ
 62
     5
100
AcDbLine
 10
11582.624547
 20
10755.384869
 30
0.0
 11
11450.387604
 21
11119.371657
 31
0.0
  0
LINE
  5
1E66
100
AcDbEntity
  8
EXTLJ
 62
     5
100
AcDbLine
 10
11543.947096
 20
10755.384869
 30
0.0
 11
11431.049642
 21
11066.094971
 31
0.0
  0
LINE
  5
1E67
100
AcDbEntity
  8
EXTLJ
 62
     5
100
AcDbLine
 10
11199.262977
 20
10679.385669
 30
0.0
 11
11399.262977
 21
10679.385669
 31
0.0
  0
LINE
  5
1E68
100
AcDbEntity
  8
EXTLJ
 62
     5
100
AcDbLine
 10
11194.462977
 20
10683.385669
 30
0.0
 11
11199.262977
 21
10683.385669
 31
0.0
  0
LINE
  5
1E69
100
AcDbEntity
  8
EXTLJ
 62
     5
100
AcDbLine
 10
11194.462977
 20
10761.384869
 30
0.0
 11
11194.462977
 21
10677.385669
 31
0.0
  0
LINE
  5
1E6A
100
AcDbEntity
  8
EXTLJ
 62
     5
100
AcDbLine
 10
11199.262977
 20
10683.385669
 30
0.0
 11
11199.262977
 21
10679.385669
 31
0.0
  0
LINE
  5
1E6B
100
AcDbEntity
  8
EXTLJ
 62
     5
100
AcDbLine
 10
11399.262977
 20
10683.385669
 30
0.0
 11
11399.262977
 21
10679.385669
 31
0.0
  0
LINE
  5
1E6C
100
AcDbEntity
  8
EXTLJ
 62
     5
100
AcDbLine
 10
11154.462977
 20
10761.384869
 30
0.0
 11
11154.462977
 21
10677.385669
 31
0.0
  0
LINE
  5
1E6D
100
AcDbEntity
  8
EXTLJ
 62
     5
100
AcDbLine
 10
11154.462977
 20
10761.386469
 30
0.0
 11
11097.342977
 21
10769.307269
 31
0.0
  0
LINE
  5
1E6E
100
AcDbEntity
  8
EXTLJ
 62
     5
100
AcDbLine
 10
11154.462977
 20
10677.385669
 30
0.0
 11
11097.342977
 21
10669.464869
 31
0.0
  0
LINE
  5
1E6F
100
AcDbEntity
  8
EXTLJ
 62
     5
100
AcDbLine
 10
11154.462977
 20
10677.385669
 30
0.0
 11
11194.462977
 21
10677.385669
 31
0.0
  0
LINE
  5
1E70
100
AcDbEntity
  8
EXTLJ
 62
     5
100
AcDbLine
 10
11154.462977
 20
10761.384869
 30
0.0
 11
11194.462977
 21
10761.384869
 31
0.0
  0
CIRCLE
  5
1E75
100
AcDbEntity
  8
EXTLJ
 62
     5
100
AcDbCircle
 10
11090.462977
 20
11519.378469
 30
0.0
 40
24.0
  0
ARC
  5
1E76
100
AcDbEntity
  8
EXTLJ
 62
     5
100
AcDbCircle
 10
11090.462977
 20
11519.382469
 30
0.0
 40
50.40008
100
AcDbArc
 50
82.097022
 51
277.902903
  0
LINE
  5
1E77
100
AcDbEntity
  8
EXTLJ
 62
     5
100
AcDbLine
 10
11399.262977
 20
11559.372069
 30
0.0
 11
11199.262977
 21
11559.372069
 31
0.0
  0
LINE
  5
1E78
100
AcDbEntity
  8
EXTLJ
 62
     5
100
AcDbLine
 10
11194.462977
 20
11561.375269
 30
0.0
 11
11194.462977
 21
11477.378469
 31
0.0
  0
LINE
  5
1E79
100
AcDbEntity
  8
EXTLJ
 62
     5
100
AcDbLine
 10
11199.262977
 20
11483.375269
 30
0.0
 11
11199.262977
 21
11479.375269
 31
0.0
  0
LINE
  5
1E7A
100
AcDbEntity
  8
EXTLJ
 62
     5
100
AcDbLine
 10
11199.262977
 20
11555.372069
 30
0.0
 11
11194.462977
 21
11555.372069
 31
0.0
  0
LINE
  5
1E7B
100
AcDbEntity
  8
EXTLJ
 62
     5
100
AcDbLine
 10
11199.262977
 20
11559.372069
 30
0.0
 11
11199.262977
 21
11555.372069
 31
0.0
  0
LINE
  5
1E7C
100
AcDbEntity
  8
EXTLJ
 62
     5
100
AcDbLine
 10
11399.262977
 20
11559.372069
 30
0.0
 11
11399.262977
 21
11555.372069
 31
0.0
  0
LINE
  5
1E7D
100
AcDbEntity
  8
EXTLJ
 62
     5
100
AcDbLine
 10
11154.462977
 20
11561.375269
 30
0.0
 11
11154.462977
 21
11477.378469
 31
0.0
  0
LINE
  5
1E7E
100
AcDbEntity
  8
EXTLJ
 62
     5
100
AcDbLine
 10
11154.462977
 20
11561.379269
 30
0.0
 11
11097.342977
 21
11569.300069
 31
0.0
  0
LINE
  5
1E7F
100
AcDbEntity
  8
EXTLJ
 62
     5
100
AcDbLine
 10
11154.462977
 20
11477.378469
 30
0.0
 11
11097.342977
 21
11469.457669
 31
0.0
  0
LINE
  5
1E80
100
AcDbEntity
  8
EXTLJ
 62
     5
100
AcDbLine
 10
11154.462977
 20
11477.378469
 30
0.0
 11
11194.462977
 21
11477.378469
 31
0.0
  0
LINE
  5
1E81
100
AcDbEntity
  8
EXTLJ
 62
     5
100
AcDbLine
 10
11154.462977
 20
11561.375269
 30
0.0
 11
11194.462977
 21
11561.375269
 31
0.0
  0
ARC
  5
1E82
100
AcDbEntity
  8
EXTLJ
 62
     5
100
AcDbCircle
 10
16090.462977
 20
10719.380069
 30
0.0
 40
50.40008
100
AcDbArc
 50
262.097022
 51
97.902903
  0
CIRCLE
  5
1E83
100
AcDbEntity
  8
EXTLJ
 62
     5
100
AcDbCircle
 10
16090.462977
 20
10719.380869
 30
0.0
 40
24.0
  0
POINT
  5
1E84
100
AcDbEntity
  8
EXTLJ
 62
     5
100
AcDbPoint
 10
16090.462977
 20
11119.379321
 30
0.0
  0
ARC
  5
1E85
100
AcDbEntity
  8
EXTLJ
 62
     5
100
AcDbCircle
 10
16090.462977
 20
11519.378469
 30
0.0
 40
50.40008
100
AcDbArc
 50
262.097022
 51
97.902903
  0
CIRCLE
  5
1E86
100
AcDbEntity
  8
EXTLJ
 62
     5
100
AcDbCircle
 10
16090.462977
 20
11519.374469
 30
0.0
 40
24.0
  0
LINE
  5
1EA2
100
AcDbEntity
  8
EXTLJ
 62
     5
100
AcDbLine
 10
15968.131199
 20
10755.384869
 30
0.0
 11
15968.131199
 21
11483.375269
 31
0.0
  0
LINE
  5
1EA3
100
AcDbEntity
  8
EXTLJ
 62
     5
100
AcDbLine
 10
15931.755385
 20
10755.384869
 30
0.0
 11
15931.755385
 21
11483.375269
 31
0.0
  0
LINE
  5
1EA6
100
AcDbEntity
  8
EXTLJ
 62
     5
100
AcDbLine
 10
15901.749542
 20
10755.384869
 30
0.0
 11
15645.990666
 21
11483.375269
 31
0.0
  0
LINE
  5
1EA7
100
AcDbEntity
  8
EXTLJ
 62
     5
100
AcDbLine
 10
15863.241401
 20
10755.384869
 30
0.0
 11
15607.402526
 21
11483.375269
 31
0.0
  0
LINE
  5
1EA8
100
AcDbEntity
  8
EXTLJ
 62
     5
100
AcDbLine
 10
15901.471561
 20
11483.375269
 30
0.0
 11
15769.299465
 21
11119.382137
 31
0.0
  0
LINE
  5
1EA9
100
AcDbEntity
  8
EXTLJ
 62
     5
100
AcDbLine
 10
15754.574999
 20
11174.245038
 30
0.0
 11
15863.23905
 21
11483.375269
 31
0.0
  0
LINE
  5
1EAD
100
AcDbEntity
  8
EXTLJ
  6
CENTER
 62
     5
100
AcDbLine
 10
16090.462977
 20
11626.408762
 30
0.0
 11
16090.462977
 21
10598.996462
 31
0.0
  0
LINE
  5
1EC0
100
AcDbEntity
  8
EXTLJ
 62
     5
100
AcDbLine
 10
15607.402161
 20
10755.384869
 30
0.0
 11
15735.322226
 21
11119.381543
 31
0.0
  0
LINE
  5
1EC1
100
AcDbEntity
  8
EXTLJ
 62
     5
100
AcDbLine
 10
15645.98861
 20
10755.384869
 30
0.0
 11
15754.574999
 21
11064.516074
 31
0.0
  0
LINE
  5
1EC2
100
AcDbEntity
  8
EXTLJ
 62
     5
100
AcDbLine
 10
15781.662977
 20
10679.385669
 30
0.0
 11
15981.662977
 21
10679.385669
 31
0.0
  0
LINE
  5
1EC3
100
AcDbEntity
  8
EXTLJ
 62
     5
100
AcDbLine
 10
15781.662977
 20
10679.385669
 30
0.0
 11
15781.662977
 21
10683.385669
 31
0.0
  0
LINE
  5
1EC4
100
AcDbEntity
  8
EXTLJ
 62
     5
100
AcDbLine
 10
15981.662977
 20
10679.385669
 30
0.0
 11
15981.662977
 21
10683.385669
 31
0.0
  0
LINE
  5
1EC5
100
AcDbEntity
  8
EXTLJ
 62
     5
100
AcDbLine
 10
16026.462977
 20
10677.385669
 30
0.0
 11
16026.462977
 21
10761.384869
 31
0.0
  0
LINE
  5
1EC6
100
AcDbEntity
  8
EXTLJ
 62
     5
100
AcDbLine
 10
15981.662977
 20
10683.385669
 30
0.0
 11
15986.462977
 21
10683.385669
 31
0.0
  0
LINE
  5
1EC7
100
AcDbEntity
  8
EXTLJ
 62
     5
100
AcDbLine
 10
15986.462977
 20
10677.385669
 30
0.0
 11
15986.462977
 21
10761.384869
 31
0.0
  0
LINE
  5
1EC8
100
AcDbEntity
  8
EXTLJ
 62
     5
100
AcDbLine
 10
15986.462977
 20
10761.384869
 30
0.0
 11
16026.462977
 21
10761.384869
 31
0.0
  0
LINE
  5
1EC9
100
AcDbEntity
  8
EXTLJ
 62
     5
100
AcDbLine
 10
15986.462977
 20
10677.385669
 30
0.0
 11
16026.462977
 21
10677.385669
 31
0.0
  0
LINE
  5
1ECA
100
AcDbEntity
  8
EXTLJ
 62
     5
100
AcDbLine
 10
16026.462977
 20
10677.384069
 30
0.0
 11
16083.582977
 21
10669.462469
 31
0.0
  0
LINE
  5
1ECB
100
AcDbEntity
  8
EXTLJ
 62
     5
100
AcDbLine
 10
16026.462977
 20
10761.380069
 30
0.0
 11
16083.582977
 21
10769.301669
 31
0.0
  0
LINE
  5
1ECC
100
AcDbEntity
  8
EXTLJ
 62
     5
100
AcDbLine
 10
15981.662977
 20
11559.372069
 30
0.0
 11
15781.662977
 21
11559.372069
 31
0.0
  0
LINE
  5
1ECD
100
AcDbEntity
  8
EXTLJ
 62
     5
100
AcDbLine
 10
15781.662977
 20
11555.372069
 30
0.0
 11
15781.662977
 21
11559.372069
 31
0.0
  0
LINE
  5
1ECE
100
AcDbEntity
  8
EXTLJ
 62
     5
100
AcDbLine
 10
15981.662977
 20
11555.372069
 30
0.0
 11
15981.662977
 21
11559.372069
 31
0.0
  0
LINE
  5
1ECF
100
AcDbEntity
  8
EXTLJ
 62
     5
100
AcDbLine
 10
15986.462977
 20
11555.372069
 30
0.0
 11
15981.662977
 21
11555.372069
 31
0.0
  0
LINE
  5
1ED0
100
AcDbEntity
  8
EXTLJ
 62
     5
100
AcDbLine
 10
15986.462977
 20
11561.375269
 30
0.0
 11
16026.462977
 21
11561.375269
 31
0.0
  0
LINE
  5
1ED1
100
AcDbEntity
  8
EXTLJ
 62
     5
100
AcDbLine
 10
15986.462977
 20
11477.378469
 30
0.0
 11
16026.462977
 21
11477.378469
 31
0.0
  0
LINE
  5
1ED2
100
AcDbEntity
  8
EXTLJ
 62
     5
100
AcDbLine
 10
16026.462977
 20
11477.378469
 30
0.0
 11
16026.462977
 21
11561.375269
 31
0.0
  0
LINE
  5
1ED3
100
AcDbEntity
  8
EXTLJ
 62
     5
100
AcDbLine
 10
15986.462977
 20
11477.378469
 30
0.0
 11
15986.462977
 21
11561.375269
 31
0.0
  0
LINE
  5
1ED4
100
AcDbEntity
  8
EXTLJ
 62
     5
100
AcDbLine
 10
16026.462977
 20
11561.382469
 30
0.0
 11
16083.582977
 21
11569.303269
 31
0.0
  0
LINE
  5
1ED5
100
AcDbEntity
  8
EXTLJ
 62
     5
100
AcDbLine
 10
16026.462977
 20
11477.381669
 30
0.0
 11
16083.582977
 21
11469.460869
 31
0.0
  0
LINE
  5
1EDA
100
AcDbEntity
  8
LJIB
 62
     5
100
AcDbLine
 10
10782.062977
 20
11542.575018
 30
0.0
 11
7880.862977
 21
11334.834086
 31
0.0
  0
LINE
  5
1EDB
100
AcDbEntity
  8
LJIB
 62
     5
100
AcDbLine
 10
10782.062977
 20
10696.167818
 30
0.0
 11
7880.862977
 21
10903.90875
 31
0.0
  0
LINE
  5
1EDC
100
AcDbEntity
  8
LJIB
 62
     5
100
AcDbLine
 10
10986.462977
 20
10755.447018
 30
0.0
 11
8367.342977
 21
10920.267818
 31
0.0
  0
LINE
  5
1EDD
100
AcDbEntity
  8
LJIB
 62
     5
100
AcDbLine
 10
10986.462977
 20
11483.295018
 30
0.0
 11
8367.342977
 21
11318.472618
 31
0.0
  0
LINE
  5
1EDE
100
AcDbEntity
  8
LJIB
  6
CENTER
 62
     5
100
AcDbLine
 10
6631.822977
 20
11119.378469
 30
0.0
 11
11330.94907
 21
11119.378469
 31
0.0
  0
LINE
  5
1EDF
100
AcDbEntity
  8
LJIB
 62
     5
100
AcDbLine
 10
7273.662977
 20
10762.060618
 30
0.0
 11
7562.542977
 21
10928.831018
 31
0.0
  0
LINE
  5
1EE0
100
AcDbEntity
  8
EXTLJ
 62
     5
100
AcDbLine
 10
7880.862977
 20
11347.378218
 30
0.0
 11
7304.034443
 21
11437.150287
 31
0.0
  0
LINE
  5
1EE1
100
AcDbEntity
  8
LJIB
 62
     5
100
AcDbLine
 10
7880.862977
 20
10904.941418
 30
0.0
 11
7551.182977
 21
10929.667018
 31
0.0
  0
LINE
  5
1EE2
100
AcDbEntity
  8
EXTLJ
 62
     5
100
AcDbLine
 10
7880.862977
 20
11334.834086
 30
0.0
 11
6724.062977
 21
11253.94275
 31
0.0
  0
ARC
  5
1EE3
100
AcDbEntity
  8
LJIB
 62
     5
100
AcDbCircle
 10
7090.462977
 20
11079.375338
 30
0.0
 40
366.4
100
AcDbArc
 50
180.00002
 51
300.000014
  0
LINE
  5
1EE4
100
AcDbEntity
  8
LJIB
 62
     5
100
AcDbLine
 10
6724.062977
 20
11253.94275
 30
0.0
 11
6724.062977
 21
11079.375338
 31
0.0
  0
LINE
  5
1EE5
100
AcDbEntity
  8
LJIB
  6
CENTER
 62
     5
100
AcDbLine
 10
7090.462977
 20
11389.330469
 30
0.0
 11
7090.462977
 21
10823.136869
 31
0.0
  0
POINT
  5
1EE6
100
AcDbEntity
  8
EXTLJ
 62
     5
100
AcDbPoint
 10
7090.462977
 20
11119.378469
 30
0.0
  0
CIRCLE
  5
1EE7
100
AcDbEntity
  8
EXTLJ
  6
CENTER
 62
     5
100
AcDbCircle
 10
7090.462977
 20
11119.378469
 30
0.0
 40
287.0
  0
LINE
  5
1EE8
100
AcDbEntity
  8
LJIB
 62
     5
100
AcDbLine
 10
7551.182977
 20
10929.680618
 30
0.0
 11
7554.382977
 21
10924.138218
 31
0.0
  0
LINE
  5
1EE9
100
AcDbEntity
  8
EXTLJ
 62
     5
100
AcDbLine
 10
7090.462977
 20
11269.330218
 30
0.0
 11
7279.996113
 21
11430.369134
 31
0.0
  0
LINE
  5
1EEA
100
AcDbEntity
  8
LJIB
  6
CENTER
 62
     5
100
AcDbLine
 10
6815.262977
 20
11119.378469
 30
0.0
 11
7462.302977
 21
11119.378469
 31
0.0
  0
LINE
  5
1EEB
100
AcDbEntity
  8
LJIB
 62
     5
100
AcDbLine
 10
7357.182977
 20
11384.727818
 30
0.0
 11
7359.344819
 21
11378.695654
 31
0.0
  0
ARC
  5
1EEC
100
AcDbEntity
  8
EXTLJ
 62
     5
100
AcDbCircle
 10
7299.421066
 20
11407.507131
 30
0.0
 40
30.0
100
AcDbArc
 50
81.153997
 51
130.353259
  0
LINE
  5
1EED
100
AcDbEntity
  8
EXTLJ
 62
     5
100
AcDbLine
 10
7290.462977
 20
11429.271539
 30
0.0
 11
7290.462977
 21
11439.26242
 31
0.0
  0
CIRCLE
  5
1EEE
100
AcDbEntity
  8
LJIB
 62
     5
100
AcDbCircle
 10
7290.462977
 20
11369.375018
 30
0.0
 40
39.99992
  0
LINE
  5
1EEF
100
AcDbEntity
  8
LJIB
  6
CENTER
 62
     5
100
AcDbLine
 10
7215.742977
 20
11369.375018
 30
0.0
 11
7351.342977
 21
11369.375018
 31
0.0
  0
LINE
  5
1EF0
100
AcDbEntity
  8
LJIB
  6
CENTER
 62
     5
100
AcDbLine
 10
7290.462977
 20
11429.271539
 30
0.0
 11
7290.462977
 21
11304.284618
 31
0.0
  0
LINE
  5
1EF1
100
AcDbEntity
  8
LJIB
 62
     5
100
AcDbLine
 10
8165.342977
 20
11186.393418
 30
0.0
 11
8448.222977
 21
11371.378218
 31
0.0
  0
LINE
  5
1EF2
100
AcDbEntity
  8
LJIB
 62
     5
100
AcDbLine
 10
8164.302977
 20
11186.010618
 30
0.0
 11
8447.822977
 21
11371.373418
 31
0.0
  0
LINE
  5
1EF3
100
AcDbEntity
  8
LJIB
 62
     5
100
AcDbLine
 10
8277.662977
 20
10978.913418
 30
0.0
 11
8343.022977
 21
11119.378881
 31
0.0
  0
LINE
  5
1EF4
100
AcDbEntity
  8
LJIB
 62
     5
100
AcDbLine
 10
8306.542977
 20
10960.024618
 30
0.0
 11
8361.902977
 21
11078.897658
 31
0.0
  0
LINE
  5
1EF5
100
AcDbEntity
  8
LJIB
 62
     5
100
AcDbLine
 10
8432.382977
 20
10927.434218
 30
0.0
 11
8277.551009
 21
11260.051152
 31
0.0
  0
LINE
  5
1EF6
100
AcDbEntity
  8
LJIB
 62
     5
100
AcDbLine
 10
8476.542977
 20
10913.401418
 30
0.0
 11
8306.445189
 21
11278.941905
 31
0.0
  0
LINE
  5
1EF7
100
AcDbEntity
  8
LJIB
 62
     5
100
AcDbLine
 10
8448.222977
 20
10867.381418
 30
0.0
 11
8165.342977
 21
11052.364618
 31
0.0
  0
LINE
  5
1EF8
100
AcDbEntity
  8
LJIB
 62
     5
100
AcDbLine
 10
8447.822977
 20
10867.384618
 30
0.0
 11
8164.302977
 21
11052.750858
 31
0.0
  0
LINE
  5
1EF9
100
AcDbEntity
  8
LJIB
 62
     5
100
AcDbLine
 10
7880.862977
 20
11347.378218
 30
0.0
 11
7880.862977
 21
10904.941418
 31
0.0
  0
LINE
  5
1F34
100
AcDbEntity
  8
LJIB
 62
     5
100
AcDbLine
 10
8448.222977
 20
10867.381418
 30
0.0
 11
8447.822977
 21
10867.381418
 31
0.0
  0
LINE
  5
1F35
100
AcDbEntity
  8
LJIB
 62
     5
100
AcDbLine
 10
8448.222977
 20
10855.381418
 30
0.0
 11
8447.822977
 21
10855.381418
 31
0.0
  0
LINE
  5
1F36
100
AcDbEntity
  8
LJIB
 62
     5
100
AcDbLine
 10
8447.822977
 20
10867.381418
 30
0.0
 11
8447.822977
 21
10855.381418
 31
0.0
  0
LINE
  5
1F37
100
AcDbEntity
  8
LJIB
 62
     5
100
AcDbLine
 10
8437.742977
 20
10915.840618
 30
0.0
 11
8432.382977
 21
10927.434218
 31
0.0
  0
LINE
  5
1F39
100
AcDbEntity
  8
LJIB
 62
     5
100
AcDbLine
 10
8432.382977
 20
11311.329418
 30
0.0
 11
8437.742977
 21
11322.917418
 31
0.0
  0
LINE
  5
1F3A
100
AcDbEntity
  8
LJIB
 62
     5
100
AcDbLine
 10
8447.822977
 20
11371.375018
 30
0.0
 11
8448.222977
 21
11371.375018
 31
0.0
  0
LINE
  5
1F3B
100
AcDbEntity
  8
LJIB
 62
     5
100
AcDbLine
 10
8447.822977
 20
11383.375018
 30
0.0
 11
8448.222977
 21
11383.375018
 31
0.0
  0
LINE
  5
1F3C
100
AcDbEntity
  8
LJIB
 62
     5
100
AcDbLine
 10
8447.822977
 20
11383.375018
 30
0.0
 11
8447.822977
 21
11371.375018
 31
0.0
  0
LINE
  5
1F3D
100
AcDbEntity
  8
LJIB
 62
     5
100
AcDbLine
 10
8361.902977
 20
11159.859898
 30
0.0
 11
8432.382977
 21
11311.329418
 31
0.0
  0
LINE
  5
1F3E
100
AcDbEntity
  8
LJIB
 62
     5
100
AcDbLine
 10
8380.702977
 20
11119.378719
 30
0.0
 11
8476.542977
 21
11325.359018
 31
0.0
  0
CIRCLE
  5
1F68
100
AcDbEntity
  8
LJIB
 62
     5
100
AcDbCircle
 10
11090.462977
 20
11519.378218
 30
0.0
 40
24.0
  0
ARC
  5
1F69
100
AcDbEntity
  8
LJIB
 62
     5
100
AcDbCircle
 10
11090.462977
 20
11519.378218
 30
0.0
 40
50.40008
100
AcDbArc
 50
262.097022
 51
97.902903
  0
LINE
  5
1F6A
100
AcDbEntity
  8
LJIB
 62
     5
100
AcDbLine
 10
10782.942977
 20
11529.822218
 30
0.0
 11
10781.822977
 21
11546.586218
 31
0.0
  0
LINE
  5
1F6B
100
AcDbEntity
  8
LJIB
  6
CENTER
 62
     5
100
AcDbLine
 10
11090.462977
 20
11595.522218
 30
0.0
 11
11090.462977
 21
10630.694218
 31
0.0
  0
LINE
  5
1F6C
100
AcDbEntity
  8
LJIB
 62
     5
100
AcDbLine
 10
10716.942977
 20
10772.408618
 30
0.0
 11
10799.902977
 21
11058.144138
 31
0.0
  0
LINE
  5
1F6D
100
AcDbEntity
  8
LJIB
 62
     5
100
AcDbLine
 10
10975.662977
 20
11482.615369
 30
0.0
 11
10975.662977
 21
10760.135018
 31
0.0
  0
LINE
  5
1F6E
100
AcDbEntity
  8
LJIB
 62
     5
100
AcDbLine
 10
10941.502977
 20
11480.465665
 30
0.0
 11
10941.502977
 21
10762.284618
 31
0.0
  0
LINE
  5
1F6F
100
AcDbEntity
  8
LJIB
 62
     5
100
AcDbLine
 10
10681.982977
 20
11464.127018
 30
0.0
 11
10884.862977
 21
10765.849418
 31
0.0
  0
LINE
  5
1F70
100
AcDbEntity
  8
LJIB
 62
     5
100
AcDbLine
 10
10716.942977
 20
11466.326218
 30
0.0
 11
10921.102977
 21
10763.567818
 31
0.0
  0
LINE
  5
1F71
100
AcDbEntity
  8
LJIB
 62
     5
100
AcDbLine
 10
10681.982977
 20
10774.603018
 30
0.0
 11
10782.142977
 21
11119.363503
 31
0.0
  0
LINE
  5
1F72
100
AcDbEntity
  8
LJIB
 62
     5
100
AcDbLine
 10
11026.462977
 20
10677.387018
 30
0.0
 11
11083.582977
 21
10669.464618
 31
0.0
  0
LINE
  5
1F73
100
AcDbEntity
  8
LJIB
 62
     5
100
AcDbLine
 10
11026.462977
 20
10761.379818
 30
0.0
 11
11083.582977
 21
10769.301418
 31
0.0
  0
ARC
  5
1F74
100
AcDbEntity
  8
LJIB
 62
     5
100
AcDbCircle
 10
11090.462977
 20
10719.377418
 30
0.0
 40
50.40008
100
AcDbArc
 50
262.097022
 51
97.902903
  0
LINE
  5
1F75
100
AcDbEntity
  8
LJIB
 62
     5
100
AcDbLine
 10
11026.462977
 20
10677.379018
 30
0.0
 11
11026.462977
 21
10761.379018
 31
0.0
  0
LINE
  5
1F76
100
AcDbEntity
  8
LJIB
 62
     5
100
AcDbLine
 10
10986.462977
 20
10683.305418
 30
0.0
 11
10981.662977
 21
10683.607018
 31
0.0
  0
LINE
  5
1F77
100
AcDbEntity
  8
LJIB
 62
     5
100
AcDbLine
 10
10973.102977
 20
10674.520618
 30
0.0
 11
10973.422977
 21
10680.115818
 31
0.0
  0
LINE
  5
1F78
100
AcDbEntity
  8
LJIB
 62
     5
100
AcDbLine
 10
10981.422977
 20
10679.608618
 30
0.0
 11
10981.662977
 21
10683.603818
 31
0.0
  0
LINE
  5
1F79
100
AcDbEntity
  8
LJIB
 62
     5
100
AcDbLine
 10
10986.462977
 20
10677.379018
 30
0.0
 11
11026.462977
 21
10677.379018
 31
0.0
  0
LINE
  5
1F7A
100
AcDbEntity
  8
LJIB
 62
     5
100
AcDbLine
 10
10981.422977
 20
10755.761418
 30
0.0
 11
10981.742977
 21
10759.750218
 31
0.0
  0
LINE
  5
1F7B
100
AcDbEntity
  8
LJIB
 62
     5
100
AcDbLine
 10
10986.462977
 20
10761.379018
 30
0.0
 11
11026.462977
 21
10761.379018
 31
0.0
  0
LINE
  5
1F7C
100
AcDbEntity
  8
LJIB
 62
     5
100
AcDbLine
 10
10786.622977
 20
10768.022218
 30
0.0
 11
10786.862977
 21
10772.011018
 31
0.0
  0
LINE
  5
1F7D
100
AcDbEntity
  8
LJIB
 62
     5
100
AcDbLine
 10
10981.422977
 20
10679.611018
 30
0.0
 11
10781.822977
 21
10692.172618
 31
0.0
  0
LINE
  5
1F7E
100
AcDbEntity
  8
LJIB
 62
     5
100
AcDbLine
 10
10981.662977
 20
10759.754218
 30
0.0
 11
10786.862977
 21
10772.014218
 31
0.0
  0
CIRCLE
  5
1F7F
100
AcDbEntity
  8
LJIB
 62
     5
100
AcDbCircle
 10
11090.462977
 20
10719.384618
 30
0.0
 40
24.0
  0
LINE
  5
1F80
100
AcDbEntity
  8
LJIB
 62
     5
100
AcDbLine
 10
11026.462977
 20
11477.381418
 30
0.0
 11
11083.582977
 21
11469.459818
 31
0.0
  0
LINE
  5
1F81
100
AcDbEntity
  8
LJIB
 62
     5
100
AcDbLine
 10
10986.462977
 20
11483.295018
 30
0.0
 11
10986.462977
 21
11477.381418
 31
0.0
  0
LINE
  5
1F82
100
AcDbEntity
  8
LJIB
 62
     5
100
AcDbLine
 10
10986.462977
 20
11477.381418
 30
0.0
 11
11026.462977
 21
11477.381418
 31
0.0
  0
LINE
  5
1F83
100
AcDbEntity
  8
LJIB
 62
     5
100
AcDbLine
 10
10817.742977
 20
11119.362906
 30
0.0
 11
10922.284777
 21
11479.256255
 31
0.0
  0
LINE
  5
1F84
100
AcDbEntity
  8
LJIB
 62
     5
100
AcDbLine
 10
10799.902977
 20
11180.582218
 30
0.0
 11
10886.046202
 21
11476.975745
 31
0.0
  0
POINT
  5
1F85
100
AcDbEntity
  8
LJIB
 62
     5
100
AcDbPoint
 10
11090.462977
 20
11119.378469
 30
0.0
  0
LINE
  5
1F86
100
AcDbEntity
  8
LJIB
 62
     5
100
AcDbLine
 10
11026.462977
 20
11561.380618
 30
0.0
 11
11083.582977
 21
11569.302218
 31
0.0
  0
LINE
  5
1F87
100
AcDbEntity
  8
LJIB
 62
     5
100
AcDbLine
 10
10984.542977
 20
11561.381418
 30
0.0
 11
11026.462977
 21
11561.381418
 31
0.0
  0
LINE
  5
1F88
100
AcDbEntity
  8
LJIB
 62
     5
100
AcDbLine
 10
10781.822977
 20
11546.583018
 30
0.0
 11
10984.542977
 21
11559.340159
 31
0.0
  0
LINE
  5
1F89
100
AcDbEntity
  8
EXSUPORT
 62
     5
100
AcDbLine
 10
25040.460149
 20
11423.376722
 30
0.0
 11
25040.460149
 21
15873.376722
 31
0.0
  0
LINE
  5
1F8A
100
AcDbEntity
  8
EXSUPORT
 62
     5
100
AcDbLine
 10
25140.460149
 20
11423.376722
 30
0.0
 11
25140.460149
 21
15873.376722
 31
0.0
  0
POINT
  5
1F8B
100
AcDbEntity
  8
EXSUPORT
 62
     5
100
AcDbPoint
 10
25090.460149
 20
11323.376722
 30
0.0
  0
ARC
  5
1F8C
100
AcDbEntity
  8
EXSUPORT
 62
     5
100
AcDbCircle
 10
25090.460149
 20
11323.376722
 30
0.0
 40
40.0
100
AcDbArc
 50
185.60169
 51
354.39831
  0
LINE
  5
1F8D
100
AcDbEntity
  8
EXSUPORT
 62
     5
100
AcDbLine
 10
25040.460149
 20
11423.376722
 30
0.0
 11
25140.460149
 21
11423.376722
 31
0.0
  0
CIRCLE
  5
1F8E
100
AcDbEntity
  8
EXSUPORT
 62
     5
100
AcDbCircle
 10
25090.460149
 20
11323.376722
 30
0.0
 40
25.0
  0
LINE
  5
1F8F
100
AcDbEntity
  8
EXSUPORT
 62
     5
100
AcDbLine
 10
25040.460149
 20
11423.376722
 30
0.0
 11
25050.651169
 21
11319.472232
 31
0.0
  0
LINE
  5
1F90
100
AcDbEntity
  8
EXSUPORT
 62
     5
100
AcDbLine
 10
25140.460149
 20
11423.376722
 30
0.0
 11
25130.26913
 21
11319.472232
 31
0.0
  0
CIRCLE
  5
1F91
100
AcDbEntity
  8
EXSUPORT
 62
     5
100
AcDbCircle
 10
25090.460149
 20
15823.376722
 30
0.0
 40
12.5
  0
LINE
  5
1F92
100
AcDbEntity
  8
EXSUPORT
 62
     5
100
AcDbLine
 10
25040.460149
 20
15873.376722
 30
0.0
 11
25140.460149
 21
15873.376722
 31
0.0
  0
LINE
  5
1F93
100
AcDbEntity
  8
LJIB
 62
     5
100
AcDbLine
 10
2929.137022
 20
5596.407496
 30
0.0
 11
2921.790083
 21
5591.148073
 31
0.0
  0
LINE
  5
1F94
100
AcDbEntity
  8
LJIB
 62
     5
100
AcDbLine
 10
2921.790083
 20
5591.148073
 30
0.0
 11
2914.947516
 21
5585.243878
 31
0.0
  0
LINE
  5
1F95
100
AcDbEntity
  8
LJIB
 62
     5
100
AcDbLine
 10
2914.947516
 20
5585.243878
 30
0.0
 11
2908.665399
 21
5578.743295
 31
0.0
  0
LINE
  5
1F96
100
AcDbEntity
  8
LJIB
 62
     5
100
AcDbLine
 10
2908.665399
 20
5578.743295
 30
0.0
 11
2902.995215
 21
5571.699598
 31
0.0
  0
LINE
  5
1F97
100
AcDbEntity
  8
LJIB
 62
     5
100
AcDbLine
 10
2902.995215
 20
5571.699598
 30
0.0
 11
2897.98343
 21
5564.170512
 31
0.0
  0
LINE
  5
1F98
100
AcDbEntity
  8
LJIB
 62
     5
100
AcDbLine
 10
2897.98343
 20
5564.170512
 30
0.0
 11
2893.671117
 21
5556.217737
 31
0.0
  0
LINE
  5
1F99
100
AcDbEntity
  8
LJIB
 62
     5
100
AcDbLine
 10
2893.671117
 20
5556.217737
 30
0.0
 11
2890.093616
 21
5547.906448
 31
0.0
  0
LINE
  5
1F9A
100
AcDbEntity
  8
LJIB
 62
     5
100
AcDbLine
 10
2890.093616
 20
5547.906448
 30
0.0
 11
2887.280246
 21
5539.304758
 31
0.0
  0
LINE
  5
1F9B
100
AcDbEntity
  8
LJIB
 62
     5
100
AcDbLine
 10
2887.280246
 20
5539.304758
 30
0.0
 11
2885.254062
 21
5530.483157
 31
0.0
  0
LINE
  5
1F9C
100
AcDbEntity
  8
LJIB
 62
     5
100
AcDbLine
 10
2885.254062
 20
5530.483157
 30
0.0
 11
2884.031668
 21
5521.513941
 31
0.0
  0
LINE
  5
1F9D
100
AcDbEntity
  8
LJIB
 62
     5
100
AcDbLine
 10
2884.031668
 20
5521.513941
 30
0.0
 11
2883.623084
 21
5512.470613
 31
0.0
  0
LINE
  5
1F9E
100
AcDbEntity
  8
LJIB
 62
     5
100
AcDbLine
 10
2883.623084
 20
5512.470613
 30
0.0
 11
2884.031657
 21
5503.427285
 31
0.0
  0
LINE
  5
1F9F
100
AcDbEntity
  8
LJIB
 62
     5
100
AcDbLine
 10
2884.031657
 20
5503.427285
 30
0.0
 11
2885.254038
 21
5494.458067
 31
0.0
  0
LINE
  5
1FA0
100
AcDbEntity
  8
LJIB
 62
     5
100
AcDbLine
 10
2885.254038
 20
5494.458067
 30
0.0
 11
2887.280211
 21
5485.636464
 31
0.0
  0
LINE
  5
1FA1
100
AcDbEntity
  8
LJIB
 62
     5
100
AcDbLine
 10
2887.280211
 20
5485.636464
 30
0.0
 11
2890.09357
 21
5477.03477
 31
0.0
  0
LINE
  5
1FA2
100
AcDbEntity
  8
LJIB
 62
     5
100
AcDbLine
 10
2890.09357
 20
5477.03477
 30
0.0
 11
2893.67106
 21
5468.723477
 31
0.0
  0
LINE
  5
1FA3
100
AcDbEntity
  8
LJIB
 62
     5
100
AcDbLine
 10
2893.67106
 20
5468.723477
 30
0.0
 11
2897.983362
 21
5460.770696
 31
0.0
  0
LINE
  5
1FA4
100
AcDbEntity
  8
LJIB
 62
     5
100
AcDbLine
 10
2897.983362
 20
5460.770696
 30
0.0
 11
2902.995137
 21
5453.241603
 31
0.0
  0
LINE
  5
1FA5
100
AcDbEntity
  8
LJIB
 62
     5
100
AcDbLine
 10
2902.995137
 20
5453.241603
 30
0.0
 11
2908.665313
 21
5446.197899
 31
0.0
  0
LINE
  5
1FA6
100
AcDbEntity
  8
LJIB
 62
     5
100
AcDbLine
 10
2908.665313
 20
5446.197899
 30
0.0
 11
2914.947421
 21
5439.697308
 31
0.0
  0
LINE
  5
1FA7
100
AcDbEntity
  8
LJIB
 62
     5
100
AcDbLine
 10
2914.947421
 20
5439.697308
 30
0.0
 11
2921.78998
 21
5433.793103
 31
0.0
  0
LINE
  5
1FA8
100
AcDbEntity
  8
LJIB
 62
     5
100
AcDbLine
 10
2921.78998
 20
5433.793103
 30
0.0
 11
2929.136913
 21
5428.53367
 31
0.0
  0
LINE
  5
1FA9
100
AcDbEntity
  8
LJIB
 62
     5
100
AcDbLine
 10
2927.860085
 20
5595.897773
 30
0.0
 11
2920.628262
 21
5590.622832
 31
0.0
  0
LINE
  5
1FAA
100
AcDbEntity
  8
LJIB
 62
     5
100
AcDbLine
 10
2920.628262
 20
5590.622832
 30
0.0
 11
2913.896753
 21
5584.719338
 31
0.0
  0
LINE
  5
1FAB
100
AcDbEntity
  8
LJIB
 62
     5
100
AcDbLine
 10
2913.896753
 20
5584.719338
 30
0.0
 11
2907.719697
 21
5578.234769
 31
0.0
  0
LINE
  5
1FAC
100
AcDbEntity
  8
LJIB
 62
     5
100
AcDbLine
 10
2907.719697
 20
5578.234769
 30
0.0
 11
2902.146775
 21
5571.22128
 31
0.0
  0
LINE
  5
1FAD
100
AcDbEntity
  8
LJIB
 62
     5
100
AcDbLine
 10
2902.146775
 20
5571.22128
 30
0.0
 11
2897.222807
 21
5563.735277
 31
0.0
  0
LINE
  5
1FAE
100
AcDbEntity
  8
LJIB
 62
     5
100
AcDbLine
 10
2897.222807
 20
5563.735277
 30
0.0
 11
2892.987395
 21
5555.836968
 31
0.0
  0
LINE
  5
1FAF
100
AcDbEntity
  8
LJIB
 62
     5
100
AcDbLine
 10
2892.987395
 20
5555.836968
 30
0.0
 11
2889.474604
 21
5547.589877
 31
0.0
  0
LINE
  5
1FB0
100
AcDbEntity
  8
LJIB
 62
     5
100
AcDbLine
 10
2889.474604
 20
5547.589877
 30
0.0
 11
2886.712686
 21
5539.060332
 31
0.0
  0
LINE
  5
1FB1
100
AcDbEntity
  8
LJIB
 62
     5
100
AcDbLine
 10
2886.712686
 20
5539.060332
 30
0.0
 11
2884.723854
 21
5530.316933
 31
0.0
  0
LINE
  5
1FB2
100
AcDbEntity
  8
LJIB
 62
     5
100
AcDbLine
 10
2884.723854
 20
5530.316933
 30
0.0
 11
2883.524104
 21
5521.430002
 31
0.0
  0
LINE
  5
1FB3
100
AcDbEntity
  8
LJIB
 62
     5
100
AcDbLine
 10
2883.524104
 20
5521.430002
 30
0.0
 11
2883.123084
 21
5512.471013
 31
0.0
  0
LINE
  5
1FB4
100
AcDbEntity
  8
LJIB
 62
     5
100
AcDbLine
 10
2883.123084
 20
5512.471013
 30
0.0
 11
2883.52402
 21
5503.51202
 31
0.0
  0
LINE
  5
1FB5
100
AcDbEntity
  8
LJIB
 62
     5
100
AcDbLine
 10
2883.52402
 20
5503.51202
 30
0.0
 11
2884.723688
 21
5494.625078
 31
0.0
  0
LINE
  5
1FB6
100
AcDbEntity
  8
LJIB
 62
     5
100
AcDbLine
 10
2884.723688
 20
5494.625078
 30
0.0
 11
2886.712439
 21
5485.881661
 31
0.0
  0
LINE
  5
1FB7
100
AcDbEntity
  8
LJIB
 62
     5
100
AcDbLine
 10
2886.712439
 20
5485.881661
 30
0.0
 11
2889.474278
 21
5477.352091
 31
0.0
  0
LINE
  5
1FB8
100
AcDbEntity
  8
LJIB
 62
     5
100
AcDbLine
 10
2889.474278
 20
5477.352091
 30
0.0
 11
2892.986993
 21
5469.104967
 31
0.0
  0
LINE
  5
1FB9
100
AcDbEntity
  8
LJIB
 62
     5
100
AcDbLine
 10
2892.986993
 20
5469.104967
 30
0.0
 11
2897.222331
 21
5461.206618
 31
0.0
  0
LINE
  5
1FBA
100
AcDbEntity
  8
LJIB
 62
     5
100
AcDbLine
 10
2897.222331
 20
5461.206618
 30
0.0
 11
2902.146229
 21
5453.720569
 31
0.0
  0
LINE
  5
1FBB
100
AcDbEntity
  8
LJIB
 62
     5
100
AcDbLine
 10
2902.146229
 20
5453.720569
 30
0.0
 11
2907.719087
 21
5446.707028
 31
0.0
  0
LINE
  5
1FBC
100
AcDbEntity
  8
LJIB
 62
     5
100
AcDbLine
 10
2907.719087
 20
5446.707028
 30
0.0
 11
2913.896082
 21
5440.222401
 31
0.0
  0
LINE
  5
1FBD
100
AcDbEntity
  8
LJIB
 62
     5
100
AcDbLine
 10
2913.896082
 20
5440.222401
 30
0.0
 11
2920.627537
 21
5434.318844
 31
0.0
  0
LINE
  5
1FBE
100
AcDbEntity
  8
LJIB
 62
     5
100
AcDbLine
 10
2920.627537
 20
5434.318844
 30
0.0
 11
2927.859311
 21
5429.043836
 31
0.0
  0
LINE
  5
1FBF
100
AcDbEntity
  8
LJIB
 62
     5
100
AcDbLine
 10
8164.482578
 20
11186.120249
 30
0.0
 11
8158.69712
 21
11181.900296
 31
0.0
  0
LINE
  5
1FC0
100
AcDbEntity
  8
LJIB
 62
     5
100
AcDbLine
 10
8158.69712
 20
11181.900296
 30
0.0
 11
8153.311913
 21
11177.177501
 31
0.0
  0
LINE
  5
1FC1
100
AcDbEntity
  8
LJIB
 62
     5
100
AcDbLine
 10
8153.311913
 20
11177.177501
 30
0.0
 11
8148.370268
 21
11171.989845
 31
0.0
  0
LINE
  5
1FC2
100
AcDbEntity
  8
LJIB
 62
     5
100
AcDbLine
 10
8148.370268
 20
11171.989845
 30
0.0
 11
8143.91193
 21
11166.379054
 31
0.0
  0
LINE
  5
1FC3
100
AcDbEntity
  8
LJIB
 62
     5
100
AcDbLine
 10
8143.91193
 20
11166.379054
 30
0.0
 11
8139.972756
 21
11160.390252
 31
0.0
  0
LINE
  5
1FC4
100
AcDbEntity
  8
LJIB
 62
     5
100
AcDbLine
 10
8139.972756
 20
11160.390252
 30
0.0
 11
8136.584426
 21
11154.071605
 31
0.0
  0
LINE
  5
1FC5
100
AcDbEntity
  8
LJIB
 62
     5
100
AcDbLine
 10
8136.584426
 20
11154.071605
 30
0.0
 11
8133.774193
 21
11147.473932
 31
0.0
  0
LINE
  5
1FC6
100
AcDbEntity
  8
LJIB
 62
     5
100
AcDbLine
 10
8133.774193
 20
11147.473932
 30
0.0
 11
8131.564659
 21
11140.650296
 31
0.0
  0
LINE
  5
1FC7
100
AcDbEntity
  8
LJIB
 62
     5
100
AcDbLine
 10
8131.564659
 20
11140.650296
 30
0.0
 11
8129.973593
 21
11133.655577
 31
0.0
  0
LINE
  5
1FC8
100
AcDbEntity
  8
LJIB
 62
     5
100
AcDbLine
 10
8129.973593
 20
11133.655577
 30
0.0
 11
8129.013793
 21
11126.546032
 31
0.0
  0
LINE
  5
1FC9
100
AcDbEntity
  8
LJIB
 62
     5
100
AcDbLine
 10
8129.013793
 20
11126.546032
 30
0.0
 11
8128.692977
 21
11119.378841
 31
0.0
  0
LINE
  5
1FCA
100
AcDbEntity
  8
LJIB
 62
     5
100
AcDbLine
 10
8128.692977
 20
11119.378841
 30
0.0
 11
8129.013726
 21
11112.211646
 31
0.0
  0
LINE
  5
1FCB
100
AcDbEntity
  8
LJIB
 62
     5
100
AcDbLine
 10
8129.013726
 20
11112.211646
 30
0.0
 11
8129.973461
 21
11105.102093
 31
0.0
  0
LINE
  5
1FCC
100
AcDbEntity
  8
LJIB
 62
     5
100
AcDbLine
 10
8129.973461
 20
11105.102093
 30
0.0
 11
8131.564461
 21
11098.107359
 31
0.0
  0
LINE
  5
1FCD
100
AcDbEntity
  8
LJIB
 62
     5
100
AcDbLine
 10
8131.564461
 20
11098.107359
 30
0.0
 11
8133.773933
 21
11091.283703
 31
0.0
  0
LINE
  5
1FCE
100
AcDbEntity
  8
LJIB
 62
     5
100
AcDbLine
 10
8133.773933
 20
11091.283703
 30
0.0
 11
8136.584105
 21
11084.686004
 31
0.0
  0
LINE
  5
1FCF
100
AcDbEntity
  8
LJIB
 62
     5
100
AcDbLine
 10
8136.584105
 20
11084.686004
 30
0.0
 11
8139.972375
 21
11078.367325
 31
0.0
  0
LINE
  5
1FD0
100
AcDbEntity
  8
LJIB
 62
     5
100
AcDbLine
 10
8139.972375
 20
11078.367325
 30
0.0
 11
8143.911493
 21
11072.378485
 31
0.0
  0
LINE
  5
1FD1
100
AcDbEntity
  8
LJIB
 62
     5
100
AcDbLine
 10
8143.911493
 20
11072.378485
 30
0.0
 11
8148.36978
 21
11066.767653
 31
0.0
  0
LINE
  5
1FD2
100
AcDbEntity
  8
LJIB
 62
     5
100
AcDbLine
 10
8148.36978
 20
11066.767653
 30
0.0
 11
8153.311376
 21
11061.579951
 31
0.0
  0
LINE
  5
1FD3
100
AcDbEntity
  8
LJIB
 62
     5
100
AcDbLine
 10
8153.311376
 20
11061.579951
 30
0.0
 11
8158.69654
 21
11056.857105
 31
0.0
  0
LINE
  5
1FD4
100
AcDbEntity
  8
LJIB
 62
     5
100
AcDbLine
 10
8158.69654
 20
11056.857105
 30
0.0
 11
8164.481959
 21
11052.637099
 31
0.0
  0
LINE
  5
1FD5
100
AcDbEntity
  8
LJIB
 62
     5
100
AcDbLine
 10
8165.504128
 20
11186.528027
 30
0.0
 11
8159.626577
 21
11182.320489
 31
0.0
  0
LINE
  5
1FD6
100
AcDbEntity
  8
LJIB
 62
     5
100
AcDbLine
 10
8159.626577
 20
11182.320489
 30
0.0
 11
8154.152523
 21
11177.597133
 31
0.0
  0
LINE
  5
1FD7
100
AcDbEntity
  8
LJIB
 62
     5
100
AcDbLine
 10
8154.152523
 20
11177.597133
 30
0.0
 11
8149.126829
 21
11172.396666
 31
0.0
  0
LINE
  5
1FD8
100
AcDbEntity
  8
LJIB
 62
     5
100
AcDbLine
 10
8149.126829
 20
11172.396666
 30
0.0
 11
8144.590682
 21
11166.761709
 31
0.0
  0
LINE
  5
1FD9
100
AcDbEntity
  8
LJIB
 62
     5
100
AcDbLine
 10
8144.590682
 20
11166.761709
 30
0.0
 11
8140.581254
 21
11160.73844
 31
0.0
  0
LINE
  5
1FDA
100
AcDbEntity
  8
LJIB
 62
     5
100
AcDbLine
 10
8140.581254
 20
11160.73844
 30
0.0
 11
8137.131404
 21
11154.37622
 31
0.0
  0
LINE
  5
1FDB
100
AcDbEntity
  8
LJIB
 62
     5
100
AcDbLine
 10
8137.131404
 20
11154.37622
 30
0.0
 11
8134.269403
 21
11147.727189
 31
0.0
  0
LINE
  5
1FDC
100
AcDbEntity
  8
LJIB
 62
     5
100
AcDbLine
 10
8134.269403
 20
11147.727189
 30
0.0
 11
8132.018707
 21
11140.845837
 31
0.0
  0
LINE
  5
1FDD
100
AcDbEntity
  8
LJIB
 62
     5
100
AcDbLine
 10
8132.018707
 20
11140.845837
 30
0.0
 11
8130.39776
 21
11133.788556
 31
0.0
  0
LINE
  5
1FDE
100
AcDbEntity
  8
LJIB
 62
     5
100
AcDbLine
 10
8130.39776
 20
11133.788556
 30
0.0
 11
8129.419845
 21
11126.613183
 31
0.0
  0
LINE
  5
1FDF
100
AcDbEntity
  8
LJIB
 62
     5
100
AcDbLine
 10
8129.419845
 20
11126.613183
 30
0.0
 11
8129.092977
 21
11119.378521
 31
0.0
  0
LINE
  5
1FE0
100
AcDbEntity
  8
LJIB
 62
     5
100
AcDbLine
 10
8129.092977
 20
11119.378521
 30
0.0
 11
8129.419836
 21
11112.143858
 31
0.0
  0
LINE
  5
1FE1
100
AcDbEntity
  8
LJIB
 62
     5
100
AcDbLine
 10
8129.419836
 20
11112.143858
 30
0.0
 11
8130.397741
 21
11104.968484
 31
0.0
  0
LINE
  5
1FE2
100
AcDbEntity
  8
LJIB
 62
     5
100
AcDbLine
 10
8130.397741
 20
11104.968484
 30
0.0
 11
8132.018679
 21
11097.911201
 31
0.0
  0
LINE
  5
1FE3
100
AcDbEntity
  8
LJIB
 62
     5
100
AcDbLine
 10
8132.018679
 20
11097.911201
 30
0.0
 11
8134.269366
 21
11091.029846
 31
0.0
  0
LINE
  5
1FE4
100
AcDbEntity
  8
LJIB
 62
     5
100
AcDbLine
 10
8134.269366
 20
11091.029846
 30
0.0
 11
8137.131358
 21
11084.380812
 31
0.0
  0
LINE
  5
1FE5
100
AcDbEntity
  8
LJIB
 62
     5
100
AcDbLine
 10
8137.131358
 20
11084.380812
 30
0.0
 11
8140.5812
 21
11078.018587
 31
0.0
  0
LINE
  5
1FE6
100
AcDbEntity
  8
LJIB
 62
     5
100
AcDbLine
 10
8140.5812
 20
11078.018587
 30
0.0
 11
8144.59062
 21
11071.995313
 31
0.0
  0
LINE
  5
1FE7
100
AcDbEntity
  8
LJIB
 62
     5
100
AcDbLine
 10
8144.59062
 20
11071.995313
 30
0.0
 11
8149.126761
 21
11066.360349
 31
0.0
  0
LINE
  5
1FE8
100
AcDbEntity
  8
LJIB
 62
     5
100
AcDbLine
 10
8149.126761
 20
11066.360349
 30
0.0
 11
8154.152447
 21
11061.159877
 31
0.0
  0
LINE
  5
1FE9
100
AcDbEntity
  8
LJIB
 62
     5
100
AcDbLine
 10
8154.152447
 20
11061.159877
 30
0.0
 11
8159.626494
 21
11056.436513
 31
0.0
  0
LINE
  5
1FEA
100
AcDbEntity
  8
LJIB
 62
     5
100
AcDbLine
 10
8159.626494
 20
11056.436513
 30
0.0
 11
8165.504041
 21
11052.228966
 31
0.0
  0
LINE
  5
22A5
100
AcDbEntity
  8
0
  6
CONTINUOUS
 62
     7
100
AcDbLine
 10
33168.044232
 20
21776.980392
 30
0.0
 11
33348.524232
 21
21776.980392
 31
0.0
  0
LINE
  5
22A6
100
AcDbEntity
  8
0
  6
CONTINUOUS
 62
     7
100
AcDbLine
 10
33162.604232
 20
22255.380392
 30
0.0
 11
33353.964232
 21
22255.380392
 31
0.0
  0
TEXT
  5
22A7
100
AcDbEntity
  8
点
 62
     7
100
AcDbText
 10
30368.813828
 20
22765.069132
 30
0.0
 40
320.0
  1
ALL RIGHTS RESERVED,COPYRIGHT(C) TADANOSYSTEMS INC.
100
AcDbText
  0
LINE
  5
22A8
100
AcDbEntity
  8
0
  6
CONTINUOUS
 62
     7
100
AcDbLine
 10
31538.284232
 20
21695.380392
 30
0.0
 11
31538.284232
 21
21135.380392
 31
0.0
  0
LINE
  5
22A9
100
AcDbEntity
  8
0
  6
CONTINUOUS
 62
     7
100
AcDbLine
 10
30698.284232
 20
21135.380392
 30
0.0
 11
31538.284232
 21
22255.380392
 31
0.0
  0
LINE
  5
22AA
100
AcDbEntity
  8
0
  6
CONTINUOUS
 62
     7
100
AcDbLine
 10
30418.284232
 20
22255.380392
 30
0.0
 11
30418.284232
 21
21415.380392
 31
0.0
  0
LINE
  5
22AB
100
AcDbEntity
  8
0
  6
CONTINUOUS
 62
     7
100
AcDbLine
 10
30418.284232
 20
21415.380392
 30
0.0
 11
31510.284232
 21
22255.380392
 31
0.0
  0
LINE
  5
22AC
100
AcDbEntity
  8
0
  6
CONTINUOUS
 62
     7
100
AcDbLine
 10
30698.284232
 20
21135.380392
 30
0.0
 11
31538.284232
 21
21135.380392
 31
0.0
  0
LINE
  5
22AD
100
AcDbEntity
  8
0
  6
CONTINUOUS
 62
     7
100
AcDbLine
 10
31538.284232
 20
22255.380392
 30
0.0
 11
31986.284232
 21
22255.380392
 31
0.0
  0
LINE
  5
22AE
100
AcDbEntity
  8
0
  6
CONTINUOUS
 62
     7
100
AcDbLine
 10
31538.284232
 20
21695.380392
 30
0.0
 11
31986.284232
 21
21695.380392
 31
0.0
  0
LINE
  5
22AF
100
AcDbEntity
  8
0
  6
CONTINUOUS
 62
     7
100
AcDbLine
 10
30418.284232
 20
22255.380392
 30
0.0
 11
31510.284232
 21
22255.380392
 31
0.0
  0
LINE
  5
22B0
100
AcDbEntity
  8
0
  6
CONTINUOUS
 62
     7
100
AcDbLine
 10
31986.284232
 20
22255.380392
 30
0.0
 11
31986.284232
 21
21695.380392
 31
0.0
  0
LINE
  5
22B1
100
AcDbEntity
  8
0
  6
CONTINUOUS
 62
     7
100
AcDbLine
 10
33270.204232
 20
22030.900392
 30
0.0
 11
33311.964232
 21
21895.140392
 31
0.0
  0
LINE
  5
22B2
100
AcDbEntity
  8
0
  6
CONTINUOUS
 62
     7
100
AcDbLine
 10
33246.364232
 20
22030.900392
 30
0.0
 11
33204.444232
 21
21895.140392
 31
0.0
  0
LINE
  5
22B3
100
AcDbEntity
  8
0
  6
CONTINUOUS
 62
     7
100
AcDbLine
 10
33204.444232
 20
21895.140392
 30
0.0
 11
33311.964232
 21
21895.140392
 31
0.0
  0
ARC
  5
22B4
100
AcDbEntity
  8
0
  6
CONTINUOUS
 62
     7
100
AcDbCircle
 10
33550.924232
 20
22117.460392
 30
0.0
 40
293.7896
100
AcDbArc
 50
188.261
 51
197.133
  0
ARC
  5
22B5
100
AcDbEntity
  8
0
  6
CONTINUOUS
 62
     7
100
AcDbCircle
 10
32965.564232
 20
22117.460392
 30
0.0
 40
293.7904
100
AcDbArc
 50
342.867
 51
351.73902
  0
LINE
  5
22B6
100
AcDbEntity
  8
0
  6
CONTINUOUS
 62
     7
100
AcDbLine
 10
33256.364232
 20
22075.300392
 30
0.0
 11
33260.284232
 21
22075.300392
 31
0.0
  0
LINE
  5
22B7
100
AcDbEntity
  8
0
  6
CONTINUOUS
 62
     7
100
AcDbLine
 10
33035.884232
 20
22255.380392
 30
0.0
 11
33035.884232
 21
22103.380392
 31
0.0
  0
LINE
  5
22B8
100
AcDbEntity
  8
0
  6
CONTINUOUS
 62
     7
100
AcDbLine
 10
33168.044232
 20
21776.980392
 30
0.0
 11
33142.844232
 21
21695.380392
 31
0.0
  0
LINE
  5
22B9
100
AcDbEntity
  8
0
  6
CONTINUOUS
 62
     7
100
AcDbLine
 10
32546.284232
 20
22103.380392
 30
0.0
 11
32702.524232
 21
22103.380392
 31
0.0
  0
LINE
  5
22BA
100
AcDbEntity
  8
0
  6
CONTINUOUS
 62
     7
100
AcDbLine
 10
32546.284232
 20
22255.380392
 30
0.0
 11
32546.284232
 21
22103.380392
 31
0.0
  0
LINE
  5
22BB
100
AcDbEntity
  8
0
  6
CONTINUOUS
 62
     7
100
AcDbLine
 10
32702.524232
 20
21695.380392
 30
0.0
 11
32879.804232
 21
21695.380392
 31
0.0
  0
LINE
  5
22BC
100
AcDbEntity
  8
0
  6
CONTINUOUS
 62
     7
100
AcDbLine
 10
32702.524232
 20
22103.380392
 30
0.0
 11
32702.524232
 21
21695.380392
 31
0.0
  0
LINE
  5
22BD
100
AcDbEntity
  8
0
  6
CONTINUOUS
 62
     7
100
AcDbLine
 10
32879.804232
 20
22103.380392
 30
0.0
 11
32879.804232
 21
21695.380392
 31
0.0
  0
LINE
  5
22BE
100
AcDbEntity
  8
0
  6
CONTINUOUS
 62
     7
100
AcDbLine
 10
32879.804232
 20
22103.380392
 30
0.0
 11
33035.884232
 21
22103.380392
 31
0.0
  0
LINE
  5
22BF
100
AcDbEntity
  8
0
  6
CONTINUOUS
 62
     7
100
AcDbLine
 10
32546.284232
 20
22255.380392
 30
0.0
 11
33035.884232
 21
22255.380392
 31
0.0
  0
LINE
  5
22C0
100
AcDbEntity
  8
0
  6
CONTINUOUS
 62
     7
100
AcDbLine
 10
32959.964232
 20
21695.380392
 30
0.0
 11
33142.844232
 21
21695.380392
 31
0.0
  0
LINE
  5
22C1
100
AcDbEntity
  8
0
  6
CONTINUOUS
 62
     7
100
AcDbLine
 10
33162.604232
 20
22255.380392
 30
0.0
 11
32959.964232
 21
21695.380392
 31
0.0
  0
LINE
  5
22C2
100
AcDbEntity
  8
0
  6
CONTINUOUS
 62
     7
100
AcDbLine
 10
34883.164232
 20
21963.700392
 30
0.0
 11
35048.124232
 21
21695.380392
 31
0.0
  0
LINE
  5
22C3
100
AcDbEntity
  8
0
  6
CONTINUOUS
 62
     7
100
AcDbLine
 10
34865.244232
 20
22255.380392
 30
0.0
 11
35030.204232
 21
21986.980392
 31
0.0
  0
LINE
  5
22C4
100
AcDbEntity
  8
0
  6
CONTINUOUS
 62
     7
100
AcDbLine
 10
34073.004232
 20
21695.380392
 30
0.0
 11
34255.964232
 21
21695.380392
 31
0.0
  0
LINE
  5
22C5
100
AcDbEntity
  8
0
  6
CONTINUOUS
 62
     7
100
AcDbLine
 10
34073.004232
 20
21695.380392
 30
0.0
 11
34275.644232
 21
22255.380392
 31
0.0
  0
ARC
  5
22C6
100
AcDbEntity
  8
0
  6
CONTINUOUS
 62
     7
100
AcDbCircle
 10
33718.364232
 20
21975.380392
 30
0.0
 40
213.884
100
AcDbArc
 50
340.276
 51
22.213
  0
LINE
  5
22C7
100
AcDbEntity
  8
0
  6
CONTINUOUS
 62
     7
100
AcDbLine
 10
33752.124232
 20
22117.460392
 30
0.0
 11
33752.124232
 21
21836.020392
 31
0.0
  0
ARC
  5
22C8
100
AcDbEntity
  8
0
  6
CONTINUOUS
 62
     7
100
AcDbCircle
 10
33729.644232
 20
21975.380392
 30
0.0
 40
368.668
100
AcDbArc
 50
341.626
 51
23.9327
  0
LINE
  5
22C9
100
AcDbEntity
  8
0
  6
CONTINUOUS
 62
     7
100
AcDbLine
 10
33752.124232
 20
21836.020392
 30
0.0
 11
33824.364232
 21
21836.020392
 31
0.0
  0
ARC
  5
22CA
100
AcDbEntity
  8
0
  6
CONTINUOUS
 62
     7
100
AcDbCircle
 10
33824.364232
 20
21937.380392
 30
0.0
 40
101.3144
100
AcDbArc
 50
270.0
 51
340.276
  0
ARC
  5
22CB
100
AcDbEntity
  8
0
  6
CONTINUOUS
 62
     7
100
AcDbCircle
 10
33825.164232
 20
22018.900392
 30
0.0
 40
98.4984
100
AcDbArc
 50
22.2133
 51
90.0
  0
LINE
  5
22CC
100
AcDbEntity
  8
0
  6
CONTINUOUS
 62
     7
100
AcDbLine
 10
33752.124232
 20
22117.460392
 30
0.0
 11
33825.164232
 21
22117.460392
 31
0.0
  0
ARC
  5
22CD
100
AcDbEntity
  8
0
  6
CONTINUOUS
 62
     7
100
AcDbCircle
 10
33865.964232
 20
22035.860392
 30
0.0
 40
219.5136
100
AcDbArc
 50
23.9328
 51
90.0
  0
LINE
  5
22CE
100
AcDbEntity
  8
0
  6
CONTINUOUS
 62
     7
100
AcDbLine
 10
33373.564232
 20
21695.380392
 30
0.0
 11
33556.604232
 21
21695.380392
 31
0.0
  0
LINE
  5
22CF
100
AcDbEntity
  8
0
  6
CONTINUOUS
 62
     7
100
AcDbLine
 10
33353.964232
 20
22255.380392
 30
0.0
 11
33556.604232
 21
21695.380392
 31
0.0
  0
LINE
  5
22D0
100
AcDbEntity
  8
0
  6
CONTINUOUS
 62
     7
100
AcDbLine
 10
33348.524232
 20
21776.980392
 30
0.0
 11
33373.564232
 21
21695.380392
 31
0.0
  0
LINE
  5
22D1
100
AcDbEntity
  8
0
  6
CONTINUOUS
 62
     7
100
AcDbLine
 10
33586.204232
 20
22255.380392
 30
0.0
 11
33586.204232
 21
21695.380392
 31
0.0
  0
LINE
  5
22D2
100
AcDbEntity
  8
0
  6
CONTINUOUS
 62
     7
100
AcDbLine
 10
33586.204232
 20
22255.380392
 30
0.0
 11
33865.964232
 21
22255.380392
 31
0.0
  0
LINE
  5
22D3
100
AcDbEntity
  8
0
  6
CONTINUOUS
 62
     7
100
AcDbLine
 10
33586.204232
 20
21695.380392
 30
0.0
 11
33852.524232
 21
21695.380392
 31
0.0
  0
ARC
  5
22D4
100
AcDbEntity
  8
0
  6
CONTINUOUS
 62
     7
100
AcDbCircle
 10
33852.524232
 20
21934.580392
 30
0.0
 40
239.212
100
AcDbArc
 50
270.0
 51
341.626
  0
LINE
  5
22D5
100
AcDbEntity
  8
0
  6
CONTINUOUS
 62
     7
100
AcDbLine
 10
34699.084232
 20
22255.380392
 30
0.0
 11
34865.244232
 21
22255.380392
 31
0.0
  0
LINE
  5
22D6
100
AcDbEntity
  8
0
  6
CONTINUOUS
 62
     7
100
AcDbLine
 10
34699.084232
 20
21695.380392
 30
0.0
 11
34859.644232
 21
21695.380392
 31
0.0
  0
LINE
  5
22D7
100
AcDbEntity
  8
0
  6
CONTINUOUS
 62
     7
100
AcDbLine
 10
34359.404232
 20
22030.900392
 30
0.0
 11
34317.564232
 21
21895.140392
 31
0.0
  0
LINE
  5
22D8
100
AcDbEntity
  8
0
  6
CONTINUOUS
 62
     7
100
AcDbLine
 10
34383.244232
 20
22030.900392
 30
0.0
 11
34425.084232
 21
21895.140392
 31
0.0
  0
LINE
  5
22D9
100
AcDbEntity
  8
0
  6
CONTINUOUS
 62
     7
100
AcDbLine
 10
34317.564232
 20
21895.140392
 30
0.0
 11
34425.084232
 21
21895.140392
 31
0.0
  0
ARC
  5
22DA
100
AcDbEntity
  8
0
  6
CONTINUOUS
 62
     7
100
AcDbCircle
 10
34078.604232
 20
22117.460392
 30
0.0
 40
293.7904
100
AcDbArc
 50
342.867
 51
351.73902
  0
ARC
  5
22DB
100
AcDbEntity
  8
0
  6
CONTINUOUS
 62
     7
100
AcDbCircle
 10
34663.964232
 20
22117.460392
 30
0.0
 40
293.7896
100
AcDbArc
 50
188.261
 51
197.133
  0
LINE
  5
22DC
100
AcDbEntity
  8
0
  6
CONTINUOUS
 62
     7
100
AcDbLine
 10
34369.404232
 20
22075.300392
 30
0.0
 11
34373.164232
 21
22075.300392
 31
0.0
  0
LINE
  5
22DD
100
AcDbEntity
  8
0
  6
CONTINUOUS
 62
     7
100
AcDbLine
 10
34486.684232
 20
21695.380392
 30
0.0
 11
34669.644232
 21
21695.380392
 31
0.0
  0
LINE
  5
22DE
100
AcDbEntity
  8
0
  6
CONTINUOUS
 62
     7
100
AcDbLine
 10
34466.924232
 20
22255.380392
 30
0.0
 11
34669.644232
 21
21695.380392
 31
0.0
  0
LINE
  5
22DF
100
AcDbEntity
  8
0
  6
CONTINUOUS
 62
     7
100
AcDbLine
 10
34699.084232
 20
22255.380392
 30
0.0
 11
34699.084232
 21
21695.380392
 31
0.0
  0
LINE
  5
22E0
100
AcDbEntity
  8
0
  6
CONTINUOUS
 62
     7
100
AcDbLine
 10
34461.564232
 20
21776.980392
 30
0.0
 11
34486.684232
 21
21695.380392
 31
0.0
  0
ARC
  5
22E1
100
AcDbEntity
  8
0
  6
CONTINUOUS
 62
     7
100
AcDbCircle
 10
34499.324232
 20
21962.740392
 30
0.0
 40
360.2264
100
AcDbArc
 50
0.0
 51
6.7299
  0
ARC
  5
22E2
100
AcDbEntity
  8
0
  6
CONTINUOUS
 62
     7
100
AcDbCircle
 10
35357.644232
 20
22255.380392
 30
0.0
 40
557.0016
100
AcDbArc
 50
206.723
 51
211.578
  0
LINE
  5
22E3
100
AcDbEntity
  8
0
  6
CONTINUOUS
 62
     7
100
AcDbLine
 10
34857.004232
 20
22004.900392
 30
0.0
 11
34860.204232
 21
22004.900392
 31
0.0
  0
LINE
  5
22E4
100
AcDbEntity
  8
0
  6
CONTINUOUS
 62
     7
100
AcDbLine
 10
34859.644232
 20
21962.740392
 30
0.0
 11
34859.644232
 21
21695.380392
 31
0.0
  0
LINE
  5
22E5
100
AcDbEntity
  8
0
  6
CONTINUOUS
 62
     7
100
AcDbLine
 10
34281.004232
 20
21776.980392
 30
0.0
 11
34255.964232
 21
21695.380392
 31
0.0
  0
LINE
  5
22E6
100
AcDbEntity
  8
0
  6
CONTINUOUS
 62
     7
100
AcDbLine
 10
34281.004232
 20
21776.980392
 30
0.0
 11
34461.564232
 21
21776.980392
 31
0.0
  0
LINE
  5
22E7
100
AcDbEntity
  8
0
  6
CONTINUOUS
 62
     7
100
AcDbLine
 10
34275.644232
 20
22255.380392
 30
0.0
 11
34466.924232
 21
22255.380392
 31
0.0
  0
ARC
  5
22E8
100
AcDbEntity
  8
0
  6
CONTINUOUS
 62
     7
100
AcDbCircle
 10
35512.444232
 20
21975.380392
 30
0.0
 40
337.7128
100
AcDbArc
 50
332.938
 51
27.062
  0
ARC
  5
22E9
100
AcDbEntity
  8
0
  6
CONTINUOUS
 62
     7
100
AcDbCircle
 10
35387.244232
 20
21975.380392
 30
0.0
 40
284.24
100
AcDbArc
 50
345.311
 51
14.6886
  0
ARC
  5
22EA
100
AcDbEntity
  8
0
  6
CONTINUOUS
 62
     7
100
AcDbCircle
 10
35592.684232
 20
22016.340392
 30
0.0
 40
247.6552
100
AcDbArc
 50
27.0618
 51
72.7366
  0
ARC
  5
22EB
100
AcDbEntity
  8
0
  6
CONTINUOUS
 62
     7
100
AcDbCircle
 10
35592.684232
 20
21934.340392
 30
0.0
 40
247.6568
100
AcDbArc
 50
287.263
 51
332.938
  0
ARC
  5
22EC
100
AcDbEntity
  8
0
  6
CONTINUOUS
 62
     7
100
AcDbCircle
 10
35539.244232
 20
22016.340392
 30
0.0
 40
247.6568
100
AcDbArc
 50
107.346
 51
153.043
  0
ARC
  5
22ED
100
AcDbEntity
  8
0
  6
CONTINUOUS
 62
     7
100
AcDbCircle
 10
35539.244232
 20
21934.340392
 30
0.0
 40
247.6544
100
AcDbArc
 50
206.967
 51
252.685
  0
ARC
  5
22EE
100
AcDbEntity
  8
0
  6
CONTINUOUS
 62
     7
100
AcDbCircle
 10
35619.404232
 20
21975.380392
 30
0.0
 40
337.7128
100
AcDbArc
 50
152.861
 51
207.131
  0
LINE
  5
22EF
100
AcDbEntity
  8
0
  6
CONTINUOUS
 62
     7
100
AcDbLine
 10
35053.724232
 20
22255.380392
 30
0.0
 11
35214.204232
 21
22255.380392
 31
0.0
  0
ARC
  5
22F0
100
AcDbEntity
  8
0
  6
CONTINUOUS
 62
     7
100
AcDbCircle
 10
35414.044232
 20
21988.020392
 30
0.0
 40
360.2264
100
AcDbArc
 50
180.0
 51
186.73
  0
LINE
  5
22F1
100
AcDbEntity
  8
0
  6
CONTINUOUS
 62
     7
100
AcDbLine
 10
35053.164232
 20
21945.780392
 30
0.0
 11
35056.284232
 21
21945.780392
 31
0.0
  0
LINE
  5
22F2
100
AcDbEntity
  8
0
  6
CONTINUOUS
 62
     7
100
AcDbLine
 10
35053.724232
 20
22255.380392
 30
0.0
 11
35053.724232
 21
21988.020392
 31
0.0
  0
ARC
  5
22F3
100
AcDbEntity
  8
0
  6
CONTINUOUS
 62
     7
100
AcDbCircle
 10
34555.644232
 20
21695.380392
 30
0.0
 40
556.9992
100
AcDbArc
 50
26.7228
 51
31.5781
  0
LINE
  5
22F4
100
AcDbEntity
  8
0
  6
CONTINUOUS
 62
     7
100
AcDbLine
 10
35048.124232
 20
21695.380392
 30
0.0
 11
35214.204232
 21
21695.380392
 31
0.0
  0
LINE
  5
22F5
100
AcDbEntity
  8
0
  6
CONTINUOUS
 62
     7
100
AcDbLine
 10
35214.204232
 20
22255.380392
 30
0.0
 11
35214.204232
 21
21695.380392
 31
0.0
  0
ARC
  5
22F6
100
AcDbEntity
  8
0
  6
CONTINUOUS
 62
     7
100
AcDbCircle
 10
35744.604232
 20
21975.380392
 30
0.0
 40
284.24
100
AcDbArc
 50
165.132
 51
194.869
  0
ARC
  5
22F7
100
AcDbEntity
  8
0
  6
CONTINUOUS
 62
     7
100
AcDbCircle
 10
35565.964232
 20
21928.580392
 30
0.0
 40
99.4984
100
AcDbArc
 50
195.203
 51
345.311
  0
ARC
  5
22F8
100
AcDbEntity
  8
0
  6
CONTINUOUS
 62
     7
100
AcDbCircle
 10
35565.964232
 20
22022.180392
 30
0.0
 40
99.4976
100
AcDbArc
 50
14.6894
 51
164.799
  0
ARC
  5
22F9
100
AcDbEntity
  8
0
  6
CONTINUOUS
 62
     7
100
AcDbCircle
 10
35565.964232
 20
21930.340392
 30
0.0
 40
337.7128
100
AcDbArc
 50
72.7367
 51
107.323
  0
ARC
  5
22FA
100
AcDbEntity
  8
0
  6
CONTINUOUS
 62
     7
100
AcDbCircle
 10
35565.964232
 20
22020.340392
 30
0.0
 40
337.7128
100
AcDbArc
 50
252.699
 51
287.263
  0
ENDSEC
  0
SECTION
  2
OBJECTS
  0
DICTIONARY
  5
2384
100
AcDbDictionary
  3
ACAD_GROUP
350
2385
  3
ACAD_MLINESTYLE
350
2392
  3
ACDBVARIABLEDICTIONARY
350
23A3
  0
DICTIONARY
  5
2385
102
{ACAD_REACTORS
330
2384
102
}
100
AcDbDictionary
  0
DICTIONARY
  5
2392
102
{ACAD_REACTORS
330
2384
102
}
100
AcDbDictionary
  3
STANDARD
350
2393
  0
DICTIONARY
  5
23A3
102
{ACAD_REACTORS
330
2384
102
}
100
AcDbDictionary
  3
DIMADEC
350
23A4
  0
MLINESTYLE
  5
2393
102
{ACAD_REACTORS
330
2392
102
}
100
AcDbMlineStyle
  2
STANDARD
 70
     0
  3

 62
   256
 51
90.0
 52
90.0
 71
     2
 49
0.5
 62
   256
  6
BYLAYER
 49
-0.5
 62
   256
  6
BYLAYER
  0
DICTIONARYVAR
  5
23A4
102
{ACAD_REACTORS
330
23A3
102
}
100
DictionaryVariables
280
     0
  1
0
  0
ENDSEC
  0
EOF
