  0
SECTION
  2
HEADER
  9
$ACADVER
  1
AC1009
  9
$INSBASE
 10
0.0
 20
0.0
 30
0.0
  9
$EXTMIN
 10
2361.942
 20
2667.396468
 30
0.0
  9
$EXTMAX
 10
28959.5
 20
15431.251705
 30
0.0
  9
$LIMMIN
 10
-285.192473
 20
-274.833541
  9
$LIMMAX
 10
28959.511719
 20
15490.525391
  9
$ORTHOMODE
 70
     0
  9
$REGENMODE
 70
     1
  9
$FILLMODE
 70
     1
  9
$QTEXTMODE
 70
     0
  9
$MIRRTEXT
 70
     1
  9
$DRAGMODE
 70
     2
  9
$LTSCALE
 40
1.0
  9
$OSMODE
 70
     1
  9
$ATTMODE
 70
     1
  9
$TEXTSIZE
 40
3.15
  9
$TRACEWID
 40
0.05
  9
$TEXTSTYLE
  7
STANDARD
  9
$CLAYER
  8
ô_
  9
$CELTYPE
  6
BYLAYER
  9
$CECOLOR
 62
     1
  9
$DIMSCALE
 40
1.0
  9
$DIMASZ
 40
4.2
  9
$DIMEXO
 40
1.5625
  9
$DIMDLI
 40
9.5
  9
$DIMRND
 40
0.0
  9
$DIMDLE
 40
0.0
  9
$DIMEXE
 40
4.5
  9
$DIMTP
 40
0.0
  9
$DIMTM
 40
0.0
  9
$DIMTXT
 40
3.15
  9
$DIMCEN
 40
2.25
  9
$DIMTSZ
 40
0.0
  9
$DIMTOL
 70
     0
  9
$DIMLIM
 70
     0
  9
$DIMTIH
 70
     1
  9
$DIMTOH
 70
     1
  9
$DIMSE1
 70
     0
  9
$DIMSE2
 70
     0
  9
$DIMTAD
 70
     0
  9
$DIMZIN
 70
     0
  9
$DIMBLK
  1

  9
$DIMASO
 70
     1
  9
$DIMSHO
 70
     0
  9
$DIMPOST
  1

  9
$DIMAPOST
  1

  9
$DIMALT
 70
     0
  9
$DIMALTD
 70
     2
  9
$DIMALTF
 40
25.4
  9
$DIMLFAC
 40
1.0
  9
$DIMTOFL
 70
     0
  9
$DIMTVP
 40
0.0
  9
$DIMTIX
 70
     0
  9
$DIMSOXD
 70
     0
  9
$DIMSAH
 70
     0
  9
$DIMBLK1
  1

  9
$DIMBLK2
  1

  9
$DIMSTYLE
  2
STANDARD
  9
$DIMCLRD
 70
     0
  9
$DIMCLRE
 70
     0
  9
$DIMCLRT
 70
     0
  9
$DIMTFAC
 40
1.0
  9
$DIMGAP
 40
0.09
  9
$LUNITS
 70
     2
  9
$LUPREC
 70
     4
  9
$SKETCHINC
 40
0.1
  9
$FILLETRAD
 40
0.0
  9
$AUNITS
 70
     0
  9
$AUPREC
 70
     0
  9
$MENU
  1
acad
  9
$ELEVATION
 40
0.0
  9
$PELEVATION
 40
0.0
  9
$THICKNESS
 40
0.0
  9
$LIMCHECK
 70
     0
  9
$BLIPMODE
 70
     1
  9
$CHAMFERA
 40
0.0
  9
$CHAMFERB
 40
0.0
  9
$SKPOLY
 70
     0
  9
$TDCREATE
 40
2451556.384722
  9
$TDUPDATE
 40
2451814.752048
  9
$TDINDWG
 40
0.053487
  9
$TDUSRTIMER
 40
0.053487
  9
$USRTIMER
 70
     1
  9
$ANGBASE
 50
0.0
  9
$ANGDIR
 70
     0
  9
$PDMODE
 70
    35
  9
$PDSIZE
 40
0.0
  9
$PLINEWID
 40
0.0
  9
$COORDS
 70
     0
  9
$SPLFRAME
 70
     0
  9
$SPLINETYPE
 70
     6
  9
$SPLINESEGS
 70
     8
  9
$ATTDIA
 70
     0
  9
$ATTREQ
 70
     1
  9
$HANDLING
 70
     1
  9
$HANDSEED
  5
431
  9
$SURFTAB1
 70
     6
  9
$SURFTAB2
 70
     6
  9
$SURFTYPE
 70
     6
  9
$SURFU
 70
     6
  9
$SURFV
 70
     6
  9
$UCSNAME
  2

  9
$UCSORG
 10
0.0
 20
0.0
 30
0.0
  9
$UCSXDIR
 10
1.0
 20
0.0
 30
0.0
  9
$UCSYDIR
 10
0.0
 20
1.0
 30
0.0
  9
$PUCSNAME
  2

  9
$PUCSORG
 10
0.0
 20
0.0
 30
0.0
  9
$PUCSXDIR
 10
1.0
 20
0.0
 30
0.0
  9
$PUCSYDIR
 10
0.0
 20
1.0
 30
0.0
  9
$USERI1
 70
     0
  9
$USERI2
 70
     0
  9
$USERI3
 70
     0
  9
$USERI4
 70
     0
  9
$USERI5
 70
     0
  9
$USERR1
 40
0.0
  9
$USERR2
 40
0.0
  9
$USERR3
 40
0.0
  9
$USERR4
 40
0.0
  9
$USERR5
 40
0.0
  9
$WORLDVIEW
 70
     1
  9
$SHADEDGE
 70
     3
  9
$SHADEDIF
 70
    70
  9
$TILEMODE
 70
     1
  9
$MAXACTVP
 70
    48
  9
$PLIMCHECK
 70
     0
  9
$PEXTMIN
 10
1.000000E+020
 20
1.000000E+020
 30
1.000000E+020
  9
$PEXTMAX
 10
-1.000000E+020
 20
-1.000000E+020
 30
-1.000000E+020
  9
$PLIMMIN
 10
0.0
 20
0.0
  9
$PLIMMAX
 10
12.0
 20
9.0
  9
$UNITMODE
 70
     0
  9
$VISRETAIN
 70
     1
  9
$PLINEGEN
 70
     0
  9
$PSLTSCALE
 70
     1
  0
ENDSEC
  0
SECTION
  2
TABLES
  0
TABLE
  2
VPORT
 70
     2
  0
VPORT
  2
*ACTIVE
 70
     0
 10
0.0
 20
0.0
 11
1.0
 21
1.0
 12
16233.340711
 22
9006.310758
 13
0.0
 23
0.0
 14
1.0
 24
1.0
 15
0.0
 25
0.0
 16
0.0
 26
0.0
 36
1.0
 17
0.0
 27
0.0
 37
0.0
 40
15719.901029
 41
1.765267
 42
50.0
 43
0.0
 44
0.0
 50
0.0
 51
0.0
 71
     0
 72
   100
 73
     1
 74
     1
 75
     0
 76
     0
 77
     0
 78
     0
  0
ENDTAB
  0
TABLE
  2
LTYPE
 70
     1
  0
LTYPE
  2
CONTINUOUS
 70
     0
  3
Solid line
 72
    65
 73
     0
 40
0.0
  0
ENDTAB
  0
TABLE
  2
LAYER
 70
     2
  0
LAYER
  2
0
 70
     0
 62
     7
  6
CONTINUOUS
  0
LAYER
  2
ô_
 70
     0
 62
     1
  6
CONTINUOUS
  0
ENDTAB
  0
TABLE
  2
STYLE
 70
     1
  0
STYLE
  2
STANDARD
 70
     0
 40
0.0
 41
0.7
 50
0.0
 71
     0
 42
2.8
  3
txt
  4
bigfont
  0
ENDTAB
  0
TABLE
  2
VIEW
 70
     0
  0
ENDTAB
  0
TABLE
  2
UCS
 70
     0
  0
ENDTAB
  0
TABLE
  2
APPID
 70
     3
  0
APPID
  2
ACAD
 70
     0
  0
APPID
  2
CONTENTTABDATA
 70
     0
  0
APPID
  2
CONTENTCURRENTTAB
 70
     0
  0
ENDTAB
  0
TABLE
  2
DIMSTYLE
 70
     1
  0
DIMSTYLE
  2
STANDARD
 70
     0
  3

  4

  5

  6

  7

 40
1.0
 41
0.18
 42
0.0625
 43
0.38
 44
0.18
 45
0.0
 46
0.0
 47
0.0
 48
0.0
140
0.18
141
0.09
142
0.0
143
25.4
144
1.0
145
0.0
146
1.0
147
0.09
 71
     0
 72
     0
 73
     1
 74
     1
 75
     0
 76
     0
 77
     0
 78
     0
170
     0
171
     2
172
     0
173
     0
174
     0
175
     0
176
     0
177
     0
178
     0
  0
ENDTAB
  0
ENDSEC
  0
SECTION
  2
BLOCKS
  0
BLOCK
  8
0
  2
$MODEL_SPACE
 70
     0
 10
0.0
 20
0.0
 30
0.0
  3
$MODEL_SPACE
  1

  0
ENDBLK
  5
1A
  8
0
  0
BLOCK
 67
     1
  8
0
  2
$PAPER_SPACE
 70
     0
 10
0.0
 20
0.0
 30
0.0
  3
$PAPER_SPACE
  1

  0
ENDBLK
  5
17
 67
     1
  8
0
  0
ENDSEC
  0
SECTION
  2
ENTITIES
  0
LINE
  5
39
  8
0
  6
CONTINUOUS
 62
     3
 10
6417.55
 20
8464.8
 30
0.0
 11
15467.6
 21
8464.8
 31
0.0
  0
LINE
  5
3A
  8
0
  6
CONTINUOUS
 62
     3
 10
6687.17
 20
9099.81
 30
0.0
 11
15772.6
 21
9099.81
 31
0.0
  0
LINE
  5
3B
  8
0
  6
CONTINUOUS
 62
     3
 10
4386.61
 20
8202.65
 30
0.0
 11
4657.45
 21
8671.77
 31
0.0
  0
LINE
  5
3C
  8
0
  6
CONTINUOUS
 62
     3
 10
4386.66
 20
8163.52
 30
0.0
 11
4386.66
 21
8202.74
 31
0.0
  0
LINE
  5
3D
  8
0
  6
CONTINUOUS
 62
     3
 10
4596.52
 20
9094.27
 30
0.0
 11
4596.52
 21
8848.95
 31
0.0
  0
LINE
  5
3E
  8
0
  6
CONTINUOUS
 62
     3
 10
6171.48
 20
8473.78
 30
0.0
 11
6444.48
 21
9116.77
 31
0.0
  0
LINE
  5
3F
  8
0
  6
CONTINUOUS
 62
     3
 10
6398.01
 20
8418.77
 30
0.0
 11
6687.48
 21
9100.57
 31
0.0
  0
LINE
  5
40
  8
0
  6
CONTINUOUS
 62
     3
 10
5651.53
 20
8449.75
 30
0.0
 11
5911.52
 21
9062.75
 31
0.0
  0
LINE
  5
41
  8
0
  6
CONTINUOUS
 62
     3
 10
5471.52
 20
8537.53
 30
0.0
 11
5583.07
 21
8800.52
 31
0.0
  0
LINE
  5
42
  8
0
  6
CONTINUOUS
 62
     3
 10
4925.0
 20
8720.81
 30
0.0
 11
4990.66
 21
9012.73
 31
0.0
  0
LINE
  5
43
  8
0
  6
CONTINUOUS
 62
     3
 10
4793.12
 20
8840.53
 30
0.0
 11
4657.45
 21
8671.76
 31
0.0
  0
LINE
  5
44
  8
0
  6
CONTINUOUS
 62
     3
 10
5016.64
 20
8328.77
 30
0.0
 11
4883.33
 21
8483.0
 31
0.0
  0
LINE
  5
45
  8
0
  6
CONTINUOUS
 62
     3
 10
4637.75
 20
8057.65
 30
0.0
 11
4908.6
 21
8526.77
 31
0.0
  0
LINE
  5
46
  8
0
  6
CONTINUOUS
 62
     3
 10
4604.0
 20
8038.15
 30
0.0
 11
4637.73
 21
8057.62
 31
0.0
  0
LINE
  5
47
  8
0
  6
CONTINUOUS
 62
     3
 10
4944.57
 20
8259.65
 30
0.0
 11
4821.3
 21
8375.56
 31
0.0
  0
LINE
  5
48
  8
0
  6
CONTINUOUS
 62
     3
 10
5496.51
 20
8449.74
 30
0.0
 11
5651.51
 21
8449.74
 31
0.0
  0
LINE
  5
49
  8
0
  6
CONTINUOUS
 62
     3
 10
4924.52
 20
8716.64
 30
0.0
 11
4924.52
 21
8487.74
 31
0.0
  0
LINE
  5
4A
  8
0
  6
CONTINUOUS
 62
     3
 10
4908.6
 20
8738.78
 30
0.0
 11
4908.6
 21
8526.74
 31
0.0
  0
LINE
  5
4B
  8
0
  6
CONTINUOUS
 62
     3
 10
5471.5
 20
8474.74
 30
0.0
 11
5496.49
 21
8449.74
 31
0.0
  0
LINE
  5
4C
  8
0
  6
CONTINUOUS
 62
     3
 10
4924.52
 20
8525.73
 30
0.0
 11
5471.49
 21
8525.73
 31
0.0
  0
LINE
  5
4D
  8
0
  6
CONTINUOUS
 62
     3
 10
4924.52
 20
8487.74
 30
0.0
 11
4971.51
 21
8487.74
 31
0.0
  0
LINE
  5
4E
  8
0
  6
CONTINUOUS
 62
     3
 10
5471.49
 20
8537.52
 30
0.0
 11
5471.49
 21
8474.74
 31
0.0
  0
LINE
  5
4F
  8
0
  6
CONTINUOUS
 62
     3
 10
5471.51
 20
8510.75
 30
0.0
 11
5471.51
 21
8487.74
 31
0.0
  0
LINE
  5
50
  8
0
  6
CONTINUOUS
 62
     3
 10
4928.06
 20
8734.41
 30
0.0
 11
4835.04
 21
8755.33
 31
0.0
  0
LINE
  5
51
  8
0
  6
CONTINUOUS
 62
     3
 10
6196.49
 20
8418.75
 30
0.0
 11
6398.01
 21
8418.75
 31
0.0
  0
LINE
  5
52
  8
0
  6
CONTINUOUS
 62
     3
 10
6171.49
 20
8473.75
 30
0.0
 11
6171.49
 21
8443.74
 31
0.0
  0
LINE
  5
53
  8
0
  6
CONTINUOUS
 62
     3
 10
6171.49
 20
8479.74
 30
0.0
 11
6171.49
 21
8456.74
 31
0.0
  0
LINE
  5
54
  8
0
  6
CONTINUOUS
 62
     3
 10
6171.49
 20
8443.75
 30
0.0
 11
6196.49
 21
8418.75
 31
0.0
  0
LINE
  5
55
  8
0
  6
CONTINUOUS
 62
     3
 10
5670.61
 20
8494.74
 30
0.0
 11
6180.4
 21
8494.74
 31
0.0
  0
LINE
  5
56
  8
0
  6
CONTINUOUS
 62
     3
 10
6444.52
 20
9116.74
 30
0.0
 11
6574.52
 21
9254.73
 31
0.0
  0
LINE
  5
57
  8
0
  6
CONTINUOUS
 62
     3
 10
5576.52
 20
9170.75
 30
0.0
 11
5911.52
 21
9062.75
 31
0.0
  0
LINE
  5
58
  8
0
  6
CONTINUOUS
 62
     3
 10
5576.5
 20
9310.72
 30
0.0
 11
5576.5
 21
9029.73
 31
0.0
  0
LINE
  5
59
  8
0
  6
CONTINUOUS
 62
     3
 10
5526.51
 20
9310.72
 30
0.0
 11
5526.51
 21
9029.73
 31
0.0
  0
LINE
  5
5A
  8
0
  6
CONTINUOUS
 62
     3
 10
4742.93
 20
9203.76
 30
0.0
 11
4986.33
 21
8993.46
 31
0.0
  0
LINE
  5
5B
  8
0
  6
CONTINUOUS
 62
     3
 10
5482.47
 20
9054.38
 30
0.0
 11
5577.62
 21
8889.57
 31
0.0
  0
LINE
  5
5C
  8
0
  6
CONTINUOUS
 62
     3
 10
5526.53
 20
9029.73
 30
0.0
 11
5576.52
 21
9029.73
 31
0.0
  0
LINE
  5
5D
  8
0
  6
CONTINUOUS
 62
     3
 10
5526.51
 20
8952.76
 30
0.0
 11
5526.51
 21
8978.02
 31
0.0
  0
LINE
  5
5E
  8
0
  6
CONTINUOUS
 62
     3
 10
4959.22
 20
8872.95
 30
0.0
 11
4808.06
 21
8906.95
 31
0.0
  0
LINE
  5
5F
  8
0
  6
CONTINUOUS
 62
     3
 10
4790.16
 20
8827.35
 30
0.0
 11
4808.06
 21
8906.95
 31
0.0
  0
LINE
  5
60
  8
0
  6
CONTINUOUS
 62
     3
 10
4741.46
 20
8776.35
 30
0.0
 11
4635.55
 21
8800.17
 31
0.0
  0
LINE
  5
61
  8
0
  6
CONTINUOUS
 62
     3
 10
5416.11
 20
9045.42
 30
0.0
 11
5473.25
 21
9078.41
 31
0.0
  0
LINE
  5
62
  8
0
  6
CONTINUOUS
 62
     3
 10
5494.77
 20
9033.12
 30
0.0
 11
5441.09
 21
9002.13
 31
0.0
  0
LINE
  5
63
  8
0
  6
CONTINUOUS
 62
     3
 10
5473.19
 20
9111.11
 30
0.0
 11
5416.04
 21
9144.11
 31
0.0
  0
LINE
  5
64
  8
0
  6
CONTINUOUS
 62
     3
 10
5687.0
 20
9144.1
 30
0.0
 11
5677.06
 21
9138.36
 31
0.0
  0
LINE
  5
65
  8
0
  6
CONTINUOUS
 62
     3
 10
5908.54
 20
9055.73
 30
0.0
 11
6418.59
 21
9055.73
 31
0.0
  0
LINE
  5
66
  8
0
  6
CONTINUOUS
 62
     3
 10
5526.53
 20
9310.72
 30
0.0
 11
5576.52
 21
9310.72
 31
0.0
  0
LINE
  5
67
  8
0
  6
CONTINUOUS
 62
     3
 10
4681.52
 20
9386.26
 30
0.0
 11
4681.52
 21
9200.81
 31
0.0
  0
LINE
  5
68
  8
0
  6
CONTINUOUS
 62
     3
 10
4731.51
 20
9386.26
 30
0.0
 11
4731.51
 21
9203.76
 31
0.0
  0
LINE
  5
69
  8
0
  6
CONTINUOUS
 62
     3
 10
4706.52
 20
9203.76
 30
0.0
 11
4742.93
 21
9203.76
 31
0.0
  0
LINE
  5
6A
  8
0
  6
CONTINUOUS
 62
     3
 10
5441.04
 20
9187.39
 30
0.0
 11
5498.19
 21
9154.4
 31
0.0
  0
LINE
  5
6B
  8
0
  6
CONTINUOUS
 62
     3
 10
5526.51
 20
9170.71
 30
0.0
 11
5526.51
 21
9236.7
 31
0.0
  0
LINE
  5
6C
  8
0
  6
CONTINUOUS
 62
     3
 10
5612.91
 20
9159.04
 30
0.0
 11
5662.01
 21
9187.39
 31
0.0
  0
LINE
  5
6D
  8
0
  6
CONTINUOUS
 62
     3
 10
5576.5
 20
9236.7
 30
0.0
 11
5576.5
 21
9172.65
 31
0.0
  0
LINE
  5
6E
  8
0
  6
CONTINUOUS
 62
     3
 10
6702.5
 20
9240.73
 30
0.0
 11
6687.49
 21
9100.54
 31
0.0
  0
LINE
  5
6F
  8
0
  6
CONTINUOUS
 62
     3
 10
6574.5
 20
9254.72
 30
0.0
 11
6702.51
 21
9240.72
 31
0.0
  0
LINE
  5
70
  8
0
  6
CONTINUOUS
 62
     3
 10
12216.4
 20
8456.45
 30
0.0
 11
12844.6
 21
8215.67
 31
0.0
  0
LINE
  5
71
  8
0
  6
CONTINUOUS
 62
     3
 10
12219.7
 20
8464.86
 30
0.0
 11
12216.4
 21
8456.45
 31
0.0
  0
LINE
  5
72
  8
0
  6
CONTINUOUS
 62
     3
 10
12838.6
 20
8464.8
 30
0.0
 11
12838.6
 21
8233.68
 31
0.0
  0
LINE
  5
73
  8
0
  6
CONTINUOUS
 62
     3
 10
13023.7
 20
8164.82
 30
0.0
 11
13089.1
 21
8410.27
 31
0.0
  0
LINE
  5
74
  8
0
  6
CONTINUOUS
 62
     3
 10
13023.7
 20
8164.81
 30
0.0
 11
12861.5
 21
8204.55
 31
0.0
  0
LINE
  5
75
  8
0
  6
CONTINUOUS
 62
     3
 10
13153.6
 20
8464.8
 30
0.0
 11
13153.6
 21
8454.8
 31
0.0
  0
LINE
  5
76
  8
0
  6
CONTINUOUS
 62
     3
 10
13147.1
 20
8454.8
 30
0.0
 11
13153.6
 21
8454.8
 31
0.0
  0
LINE
  5
77
  8
0
  6
CONTINUOUS
 62
     3
 10
15837.6
 20
8828.81
 30
0.0
 11
15467.6
 21
8464.8
 31
0.0
  0
LINE
  5
78
  8
0
  6
CONTINUOUS
 62
     3
 10
15837.6
 20
9034.81
 30
0.0
 11
15837.6
 21
8828.81
 31
0.0
  0
LINE
  5
79
  8
0
  6
CONTINUOUS
 62
     3
 10
15772.6
 20
9099.81
 30
0.0
 11
15837.6
 21
9034.81
 31
0.0
  0
LINE
  5
7A
  8
0
  6
CONTINUOUS
 62
     3
 10
4990.66
 20
9012.73
 30
0.0
 11
5366.34
 21
9012.73
 31
0.0
  0
LINE
  5
7B
  8
0
  6
CONTINUOUS
 62
     3
 10
16297.7
 20
7746.03
 30
0.0
 11
15639.5
 21
7366.03
 31
0.0
  0
LINE
  5
7C
  8
0
  6
CONTINUOUS
 62
     3
 10
15274.8
 20
7718.95
 30
0.0
 11
16269.3
 21
8293.14
 31
0.0
  0
LINE
  5
7D
  8
0
  6
CONTINUOUS
 62
     3
 10
14784.0
 20
7797.84
 30
0.0
 11
15628.3
 21
9076.57
 31
0.0
  0
LINE
  5
7E
  8
0
  6
CONTINUOUS
 62
     3
 10
15263.3
 20
7712.34
 30
0.0
 11
15565.0
 21
7501.09
 31
0.0
  0
LINE
  5
7F
  8
0
  6
CONTINUOUS
 62
     3
 10
14780.0
 20
7662.26
 30
0.0
 11
15018.6
 21
7248.92
 31
0.0
  0
LINE
  5
80
  8
0
  6
CONTINUOUS
 62
     3
 10
14879.1
 20
7490.53
 30
0.0
 11
15274.8
 21
7718.95
 31
0.0
  0
LINE
  5
81
  8
0
  6
CONTINUOUS
 62
     3
 10
15525.2
 20
8432.2
 30
0.0
 11
15229.3
 21
7984.04
 31
0.0
  0
LINE
  5
82
  8
0
  6
CONTINUOUS
 62
     3
 10
15226.5
 20
7889.44
 30
0.0
 11
15312.4
 21
7740.65
 31
0.0
  0
LINE
  5
83
  8
0
  6
CONTINUOUS
 62
     3
 10
15550.1
 20
7482.97
 30
0.0
 11
15375.1
 21
7381.97
 31
0.0
  0
LINE
  5
84
  8
0
  6
CONTINUOUS
 62
     3
 10
15556.3
 20
7110.15
 30
0.0
 11
15539.0
 21
7100.15
 31
0.0
  0
LINE
  5
85
  8
0
  6
CONTINUOUS
 62
     3
 10
15035.1
 20
7239.42
 30
0.0
 11
15435.5
 21
7239.42
 31
0.0
  0
LINE
  5
86
  8
0
  6
CONTINUOUS
 62
     3
 10
15368.7
 20
7355.14
 30
0.0
 11
15511.7
 21
7107.47
 31
0.0
  0
LINE
  5
87
  8
0
  6
CONTINUOUS
 62
     3
 10
15559.1
 20
7505.19
 30
0.0
 11
15683.4
 21
7290.07
 31
0.0
  0
LINE
  5
88
  8
0
  6
CONTINUOUS
 62
     3
 10
15553.6
 20
7154.79
 30
0.0
 11
15563.6
 21
7137.47
 31
0.0
  0
LINE
  5
89
  8
0
  6
CONTINUOUS
 62
     3
 10
15683.4
 20
7290.07
 30
0.0
 11
15645.0
 21
7256.53
 31
0.0
  0
LINE
  5
8A
  8
0
  6
CONTINUOUS
 62
     3
 10
15645.0
 20
7256.53
 30
0.0
 11
15621.1
 21
7242.74
 31
0.0
  0
LINE
  5
8B
  8
0
  6
CONTINUOUS
 62
     3
 10
15684.7
 20
7291.23
 30
0.0
 11
15678.8
 21
7298.01
 31
0.0
  0
LINE
  5
8C
  8
0
  6
CONTINUOUS
 62
     3
 10
16053.7
 20
8168.65
 30
0.0
 11
16367.7
 21
7624.79
 31
0.0
  0
LINE
  5
8D
  8
0
  6
CONTINUOUS
 62
     3
 10
15773.3
 20
9152.23
 30
0.0
 11
16507.3
 21
7880.92
 31
0.0
  0
LINE
  5
8E
  8
0
  6
CONTINUOUS
 62
     3
 10
15773.3
 20
9152.23
 30
0.0
 11
15782.0
 21
9157.23
 31
0.0
  0
LINE
  5
8F
  8
0
  6
CONTINUOUS
 62
     3
 10
15777.5
 20
9165.02
 30
0.0
 11
15782.0
 21
9157.23
 31
0.0
  0
LINE
  5
90
  8
0
  6
CONTINUOUS
 62
     3
 10
15777.5
 20
9165.02
 30
0.0
 11
15634.7
 21
9082.57
 31
0.0
  0
LINE
  5
91
  8
0
  6
CONTINUOUS
 62
     3
 10
15839.0
 20
8520.45
 30
0.0
 11
16045.0
 21
8163.65
 31
0.0
  0
LINE
  5
92
  8
0
  6
CONTINUOUS
 62
     3
 10
15717.0
 20
8553.89
 30
0.0
 11
15555.3
 21
8460.56
 31
0.0
  0
LINE
  5
93
  8
0
  6
CONTINUOUS
 62
     3
 10
16505.5
 20
7866.02
 30
0.0
 11
16297.7
 21
7746.03
 31
0.0
  0
LINE
  5
94
  8
0
  6
CONTINUOUS
 62
     3
 10
16522.0
 20
7875.53
 30
0.0
 11
16505.5
 21
7866.02
 31
0.0
  0
LINE
  5
95
  8
0
  6
CONTINUOUS
 62
     3
 10
16505.5
 20
7866.02
 30
0.0
 11
16575.5
 21
7744.78
 31
0.0
  0
LINE
  5
96
  8
0
  6
CONTINUOUS
 62
     3
 10
16516.0
 20
7885.91
 30
0.0
 11
16522.0
 21
7875.52
 31
0.0
  0
LINE
  5
97
  8
0
  6
CONTINUOUS
 62
     3
 10
16516.0
 20
7885.92
 30
0.0
 11
16522.0
 21
7875.52
 31
0.0
  0
LINE
  5
98
  8
0
  6
CONTINUOUS
 62
     3
 10
16516.0
 20
7885.92
 30
0.0
 11
16499.5
 21
7876.42
 31
0.0
  0
LINE
  5
99
  8
0
  6
CONTINUOUS
 62
     3
 10
14876.4
 20
7937.92
 30
0.0
 11
13303.1
 21
8371.12
 31
0.0
  0
LINE
  5
9A
  8
0
  6
CONTINUOUS
 62
     3
 10
13223.8
 20
8083.35
 30
0.0
 11
14785.5
 21
7653.34
 31
0.0
  0
LINE
  5
9B
  8
0
  6
CONTINUOUS
 62
     3
 10
13106.9
 20
8378.21
 30
0.0
 11
13051.6
 21
8177.68
 31
0.0
  0
LINE
  5
9C
  8
0
  6
CONTINUOUS
 62
     3
 10
13161.6
 20
8384.92
 30
0.0
 11
13095.2
 21
8143.9
 31
0.0
  0
LINE
  5
9D
  8
0
  6
CONTINUOUS
 62
     3
 10
13180.5
 20
8416.01
 30
0.0
 11
13095.6
 21
8107.51
 31
0.0
  0
LINE
  5
9E
  8
0
  6
CONTINUOUS
 62
     3
 10
13305.9
 20
8381.49
 30
0.0
 11
13220.9
 21
8072.99
 31
0.0
  0
LINE
  5
9F
  8
0
  6
CONTINUOUS
 62
     3
 10
13080.6
 20
8169.72
 30
0.0
 11
13051.6
 21
8177.68
 31
0.0
  0
LINE
  5
A0
  8
0
  6
CONTINUOUS
 62
     3
 10
12937.0
 20
8213.38
 30
0.0
 11
13052.7
 21
8181.53
 31
0.0
  0
LINE
  5
A1
  8
0
  6
CONTINUOUS
 62
     3
 10
13080.3
 20
8168.75
 30
0.0
 11
13100.5
 21
8163.18
 31
0.0
  0
LINE
  5
A2
  8
0
  6
CONTINUOUS
 62
     3
 10
13097.3
 20
8104.43
 30
0.0
 11
13217.8
 21
8071.25
 31
0.0
  0
LINE
  5
A3
  8
0
  6
CONTINUOUS
 62
     3
 10
13105.1
 20
8138.32
 30
0.0
 11
13103.9
 21
8137.62
 31
0.0
  0
LINE
  5
A4
  8
0
  6
CONTINUOUS
 62
     3
 10
13095.6
 20
8107.49
 30
0.0
 11
13097.3
 21
8104.41
 31
0.0
  0
LINE
  5
A5
  8
0
  6
CONTINUOUS
 62
     3
 10
13097.0
 20
8140.83
 30
0.0
 11
13104.2
 21
8138.84
 31
0.0
  0
LINE
  5
A6
  8
0
  6
CONTINUOUS
 62
     3
 10
13224.7
 20
8083.08
 30
0.0
 11
13224.8
 21
8083.32
 31
0.0
  0
LINE
  5
A7
  8
0
  6
CONTINUOUS
 62
     3
 10
13220.9
 20
8072.97
 30
0.0
 11
13217.8
 21
8071.22
 31
0.0
  0
LINE
  5
A8
  8
0
  6
CONTINUOUS
 62
     3
 10
13220.9
 20
8072.97
 30
0.0
 11
13217.8
 21
8071.22
 31
0.0
  0
LINE
  5
A9
  8
0
  6
CONTINUOUS
 62
     3
 10
13095.2
 20
8143.89
 30
0.0
 11
13097.0
 21
8140.82
 31
0.0
  0
LINE
  5
AA
  8
0
  6
CONTINUOUS
 62
     3
 10
13156.1
 20
8364.68
 30
0.0
 11
13106.9
 21
8378.21
 31
0.0
  0
LINE
  5
AB
  8
0
  6
CONTINUOUS
 62
     3
 10
12990.2
 20
8406.19
 30
0.0
 11
13105.9
 21
8374.33
 31
0.0
  0
LINE
  5
AC
  8
0
  6
CONTINUOUS
 62
     3
 10
13304.1
 20
8384.57
 30
0.0
 11
13183.6
 21
8417.75
 31
0.0
  0
LINE
  5
AD
  8
0
  6
CONTINUOUS
 62
     3
 10
13171.9
 20
8384.67
 30
0.0
 11
13164.7
 21
8386.66
 31
0.0
  0
LINE
  5
AE
  8
0
  6
CONTINUOUS
 62
     3
 10
13183.6
 20
8417.74
 30
0.0
 11
13180.5
 21
8416.0
 31
0.0
  0
LINE
  5
AF
  8
0
  6
CONTINUOUS
 62
     3
 10
13164.7
 20
8386.67
 30
0.0
 11
13161.6
 21
8384.92
 31
0.0
  0
LINE
  5
B0
  8
0
  6
CONTINUOUS
 62
     3
 10
6687.17
 20
4361.34
 30
0.0
 11
15772.6
 21
4361.34
 31
0.0
  0
LINE
  5
B1
  8
0
  6
CONTINUOUS
 62
     3
 10
6417.55
 20
3726.33
 30
0.0
 11
15467.6
 21
3726.33
 31
0.0
  0
LINE
  5
B2
  8
0
  6
CONTINUOUS
 62
     3
 10
4990.66
 20
4274.26
 30
0.0
 11
5366.34
 21
4274.26
 31
0.0
  0
LINE
  5
B3
  8
0
  6
CONTINUOUS
 62
     3
 10
4924.52
 20
3787.26
 30
0.0
 11
5471.49
 21
3787.26
 31
0.0
  0
LINE
  5
B4
  8
0
  6
CONTINUOUS
 62
     3
 10
4944.57
 20
3521.18
 30
0.0
 11
4821.3
 21
3637.09
 31
0.0
  0
LINE
  5
B5
  8
0
  6
CONTINUOUS
 62
     3
 10
4637.75
 20
3319.18
 30
0.0
 11
4908.6
 21
3788.3
 31
0.0
  0
LINE
  5
B6
  8
0
  6
CONTINUOUS
 62
     3
 10
4386.61
 20
3464.18
 30
0.0
 11
4657.45
 21
3933.3
 31
0.0
  0
LINE
  5
B7
  8
0
  6
CONTINUOUS
 62
     3
 10
4386.66
 20
3425.05
 30
0.0
 11
4386.66
 21
3464.27
 31
0.0
  0
LINE
  5
B8
  8
0
  6
CONTINUOUS
 62
     3
 10
4604.0
 20
3299.68
 30
0.0
 11
4637.73
 21
3319.15
 31
0.0
  0
LINE
  5
B9
  8
0
  6
CONTINUOUS
 62
     3
 10
4925.0
 20
3982.34
 30
0.0
 11
4990.66
 21
4274.26
 31
0.0
  0
LINE
  5
BA
  8
0
  6
CONTINUOUS
 62
     3
 10
4596.52
 20
4355.8
 30
0.0
 11
4596.52
 21
4110.48
 31
0.0
  0
LINE
  5
BB
  8
0
  6
CONTINUOUS
 62
     3
 10
4924.52
 20
3749.27
 30
0.0
 11
4971.51
 21
3749.27
 31
0.0
  0
LINE
  5
BC
  8
0
  6
CONTINUOUS
 62
     3
 10
5016.64
 20
3590.3
 30
0.0
 11
4883.33
 21
3744.53
 31
0.0
  0
LINE
  5
BD
  8
0
  6
CONTINUOUS
 62
     3
 10
4959.22
 20
4134.48
 30
0.0
 11
4808.06
 21
4168.48
 31
0.0
  0
LINE
  5
BE
  8
0
  6
CONTINUOUS
 62
     3
 10
4908.6
 20
4000.31
 30
0.0
 11
4908.6
 21
3788.27
 31
0.0
  0
LINE
  5
BF
  8
0
  6
CONTINUOUS
 62
     3
 10
4924.52
 20
3978.17
 30
0.0
 11
4924.52
 21
3749.27
 31
0.0
  0
LINE
  5
C0
  8
0
  6
CONTINUOUS
 62
     3
 10
4741.46
 20
4037.88
 30
0.0
 11
4635.55
 21
4061.7
 31
0.0
  0
LINE
  5
C1
  8
0
  6
CONTINUOUS
 62
     3
 10
4793.12
 20
4102.06
 30
0.0
 11
4657.45
 21
3933.29
 31
0.0
  0
LINE
  5
C2
  8
0
  6
CONTINUOUS
 62
     3
 10
4790.16
 20
4088.88
 30
0.0
 11
4808.06
 21
4168.48
 31
0.0
  0
LINE
  5
C3
  8
0
  6
CONTINUOUS
 62
     3
 10
4928.06
 20
3995.94
 30
0.0
 11
4835.04
 21
4016.86
 31
0.0
  0
LINE
  5
C4
  8
0
  6
CONTINUOUS
 62
     3
 10
4742.93
 20
4465.29
 30
0.0
 11
4986.33
 21
4254.99
 31
0.0
  0
LINE
  5
C5
  8
0
  6
CONTINUOUS
 62
     3
 10
4731.51
 20
4647.79
 30
0.0
 11
4731.51
 21
4465.29
 31
0.0
  0
LINE
  5
C6
  8
0
  6
CONTINUOUS
 62
     3
 10
4681.52
 20
4647.79
 30
0.0
 11
4681.52
 21
4462.34
 31
0.0
  0
LINE
  5
C7
  8
0
  6
CONTINUOUS
 62
     3
 10
4706.52
 20
4465.29
 30
0.0
 11
4742.93
 21
4465.29
 31
0.0
  0
LINE
  5
C8
  8
0
  6
CONTINUOUS
 62
     3
 10
5908.54
 20
4317.26
 30
0.0
 11
6418.59
 21
4317.26
 31
0.0
  0
LINE
  5
C9
  8
0
  6
CONTINUOUS
 62
     3
 10
5670.61
 20
3756.27
 30
0.0
 11
6180.4
 21
3756.27
 31
0.0
  0
LINE
  5
CA
  8
0
  6
CONTINUOUS
 62
     3
 10
5482.47
 20
4315.91
 30
0.0
 11
5577.62
 21
4151.1
 31
0.0
  0
LINE
  5
CB
  8
0
  6
CONTINUOUS
 62
     3
 10
5651.53
 20
3711.28
 30
0.0
 11
5911.52
 21
4324.28
 31
0.0
  0
LINE
  5
CC
  8
0
  6
CONTINUOUS
 62
     3
 10
5471.52
 20
3799.06
 30
0.0
 11
5583.07
 21
4062.05
 31
0.0
  0
LINE
  5
CD
  8
0
  6
CONTINUOUS
 62
     3
 10
5496.51
 20
3711.27
 30
0.0
 11
5651.51
 21
3711.27
 31
0.0
  0
LINE
  5
CE
  8
0
  6
CONTINUOUS
 62
     3
 10
5471.51
 20
3772.28
 30
0.0
 11
5471.51
 21
3749.27
 31
0.0
  0
LINE
  5
CF
  8
0
  6
CONTINUOUS
 62
     3
 10
5471.49
 20
3799.05
 30
0.0
 11
5471.49
 21
3736.27
 31
0.0
  0
LINE
  5
D0
  8
0
  6
CONTINUOUS
 62
     3
 10
5471.5
 20
3736.27
 30
0.0
 11
5496.49
 21
3711.27
 31
0.0
  0
LINE
  5
D1
  8
0
  6
CONTINUOUS
 62
     3
 10
5526.51
 20
4214.29
 30
0.0
 11
5526.51
 21
4239.55
 31
0.0
  0
LINE
  5
D2
  8
0
  6
CONTINUOUS
 62
     3
 10
5576.52
 20
4432.28
 30
0.0
 11
5911.52
 21
4324.28
 31
0.0
  0
LINE
  5
D3
  8
0
  6
CONTINUOUS
 62
     3
 10
5526.53
 20
4572.25
 30
0.0
 11
5576.52
 21
4572.25
 31
0.0
  0
LINE
  5
D4
  8
0
  6
CONTINUOUS
 62
     3
 10
5526.53
 20
4291.26
 30
0.0
 11
5576.52
 21
4291.26
 31
0.0
  0
LINE
  5
D5
  8
0
  6
CONTINUOUS
 62
     3
 10
5526.51
 20
4432.24
 30
0.0
 11
5526.51
 21
4498.23
 31
0.0
  0
LINE
  5
D6
  8
0
  6
CONTINUOUS
 62
     3
 10
5441.04
 20
4448.92
 30
0.0
 11
5498.19
 21
4415.93
 31
0.0
  0
LINE
  5
D7
  8
0
  6
CONTINUOUS
 62
     3
 10
5506.52
 20
4268.28
 30
0.0
 11
5509.95
 21
4268.28
 31
0.0
  0
LINE
  5
D8
  8
0
  6
CONTINUOUS
 62
     3
 10
5494.77
 20
4294.65
 30
0.0
 11
5441.09
 21
4263.66
 31
0.0
  0
LINE
  5
D9
  8
0
  6
CONTINUOUS
 62
     3
 10
5526.51
 20
4572.25
 30
0.0
 11
5526.51
 21
4291.26
 31
0.0
  0
LINE
  5
DA
  8
0
  6
CONTINUOUS
 62
     3
 10
5473.19
 20
4372.64
 30
0.0
 11
5416.04
 21
4405.64
 31
0.0
  0
LINE
  5
DB
  8
0
  6
CONTINUOUS
 62
     3
 10
5416.11
 20
4306.95
 30
0.0
 11
5473.25
 21
4339.94
 31
0.0
  0
LINE
  5
DC
  8
0
  6
CONTINUOUS
 62
     3
 10
5576.5
 20
4498.23
 30
0.0
 11
5576.5
 21
4434.18
 31
0.0
  0
LINE
  5
DD
  8
0
  6
CONTINUOUS
 62
     3
 10
5612.91
 20
4420.57
 30
0.0
 11
5662.01
 21
4448.92
 31
0.0
  0
LINE
  5
DE
  8
0
  6
CONTINUOUS
 62
     3
 10
5687.0
 20
4405.63
 30
0.0
 11
5677.06
 21
4399.89
 31
0.0
  0
LINE
  5
DF
  8
0
  6
CONTINUOUS
 62
     3
 10
5576.5
 20
4572.25
 30
0.0
 11
5576.5
 21
4291.26
 31
0.0
  0
LINE
  5
E0
  8
0
  6
CONTINUOUS
 62
     3
 10
6398.01
 20
3680.3
 30
0.0
 11
6687.48
 21
4362.1
 31
0.0
  0
LINE
  5
E1
  8
0
  6
CONTINUOUS
 62
     3
 10
6171.48
 20
3735.31
 30
0.0
 11
6444.48
 21
4378.3
 31
0.0
  0
LINE
  5
E2
  8
0
  6
CONTINUOUS
 62
     3
 10
6196.49
 20
3680.28
 30
0.0
 11
6398.01
 21
3680.28
 31
0.0
  0
LINE
  5
E3
  8
0
  6
CONTINUOUS
 62
     3
 10
6171.49
 20
3705.28
 30
0.0
 11
6196.49
 21
3680.28
 31
0.0
  0
LINE
  5
E4
  8
0
  6
CONTINUOUS
 62
     3
 10
6171.49
 20
3741.27
 30
0.0
 11
6171.49
 21
3718.27
 31
0.0
  0
LINE
  5
E5
  8
0
  6
CONTINUOUS
 62
     3
 10
6171.49
 20
3735.28
 30
0.0
 11
6171.49
 21
3705.27
 31
0.0
  0
LINE
  5
E6
  8
0
  6
CONTINUOUS
 62
     3
 10
6444.52
 20
4378.27
 30
0.0
 11
6574.52
 21
4516.26
 31
0.0
  0
LINE
  5
E7
  8
0
  6
CONTINUOUS
 62
     3
 10
6702.5
 20
4502.26
 30
0.0
 11
6687.49
 21
4362.07
 31
0.0
  0
LINE
  5
E8
  8
0
  6
CONTINUOUS
 62
     3
 10
6574.5
 20
4516.25
 30
0.0
 11
6702.51
 21
4502.25
 31
0.0
  0
LINE
  5
E9
  8
0
  6
CONTINUOUS
 62
     3
 10
16593.6
 20
2769.07
 30
0.0
 11
16593.6
 21
3225.93
 31
0.0
  0
LINE
  5
EA
  8
0
  6
CONTINUOUS
 62
     3
 10
16395.3
 20
2769.08
 30
0.0
 11
16872.5
 21
2769.04
 31
0.0
  0
LINE
  5
EB
  8
0
  6
CONTINUOUS
 62
     3
 10
16279.8
 20
2840.33
 30
0.0
 11
15594.6
 21
4210.88
 31
0.0
  0
LINE
  5
EC
  8
0
  6
CONTINUOUS
 62
     3
 10
13023.7
 20
3426.35
 30
0.0
 11
13089.1
 21
3671.8
 31
0.0
  0
LINE
  5
ED
  8
0
  6
CONTINUOUS
 62
     3
 10
12838.6
 20
3726.33
 30
0.0
 11
12838.6
 21
3495.21
 31
0.0
  0
LINE
  5
EE
  8
0
  6
CONTINUOUS
 62
     3
 10
12216.4
 20
3717.98
 30
0.0
 11
12844.6
 21
3477.2
 31
0.0
  0
LINE
  5
EF
  8
0
  6
CONTINUOUS
 62
     3
 10
13023.7
 20
3426.34
 30
0.0
 11
12861.5
 21
3466.08
 31
0.0
  0
LINE
  5
F0
  8
0
  6
CONTINUOUS
 62
     3
 10
12219.7
 20
3726.39
 30
0.0
 11
12216.4
 21
3717.98
 31
0.0
  0
LINE
  5
F1
  8
0
  6
CONTINUOUS
 62
     3
 10
13147.1
 20
3716.33
 30
0.0
 11
13153.6
 21
3716.33
 31
0.0
  0
LINE
  5
F2
  8
0
  6
CONTINUOUS
 62
     3
 10
13153.6
 20
3726.33
 30
0.0
 11
13153.6
 21
3716.33
 31
0.0
  0
LINE
  5
F3
  8
0
  6
CONTINUOUS
 62
     3
 10
16181.6
 20
4115.3
 30
0.0
 11
16593.6
 21
4115.3
 31
0.0
  0
LINE
  5
F4
  8
0
  6
CONTINUOUS
 62
     3
 10
16101.1
 20
3799.41
 30
0.0
 11
16341.2
 21
3319.08
 31
0.0
  0
LINE
  5
F5
  8
0
  6
CONTINUOUS
 62
     3
 10
15601.6
 20
4374.29
 30
0.0
 11
17069.6
 21
4374.3
 31
0.0
  0
LINE
  5
F6
  8
0
  6
CONTINUOUS
 62
     3
 10
17081.6
 20
4125.33
 30
0.0
 11
17081.6
 21
3365.31
 31
0.0
  0
LINE
  5
F7
  8
0
  6
CONTINUOUS
 62
     3
 10
16593.6
 20
3225.93
 30
0.0
 11
16593.6
 21
4374.29
 31
0.0
  0
LINE
  5
F8
  8
0
  6
CONTINUOUS
 62
     3
 10
16593.5
 20
3212.67
 30
0.0
 11
16920.802373
 21
3365.29998
 31
0.0
  0
LINE
  5
F9
  8
0
  6
CONTINUOUS
 62
     3
 10
16935.6
 20
3346.36
 30
0.0
 11
16935.6
 21
3144.31
 31
0.0
  0
LINE
  5
FA
  8
0
  6
CONTINUOUS
 62
     3
 10
16955.6
 20
3125.35
 30
0.0
 11
17241.6
 21
3125.36
 31
0.0
  0
LINE
  5
FB
  8
0
  6
CONTINUOUS
 62
     3
 10
16889.0
 20
2778.58
 30
0.0
 11
17089.2
 21
3125.35
 31
0.0
  0
LINE
  5
FC
  8
0
  6
CONTINUOUS
 62
     3
 10
17169.3
 20
3365.35
 30
0.0
 11
17179.1
 21
3315.33
 31
0.0
  0
LINE
  5
FD
  8
0
  6
CONTINUOUS
 62
     3
 10
17221.5
 20
3185.3
 30
0.0
 11
17241.5
 21
3185.3
 31
0.0
  0
LINE
  5
FE
  8
0
  6
CONTINUOUS
 62
     3
 10
17261.6
 20
3165.32
 30
0.0
 11
17261.6
 21
3145.34
 31
0.0
  0
LINE
  5
FF
  8
0
  6
CONTINUOUS
 62
     3
 10
17179.1
 20
3315.33
 30
0.0
 11
17179.1
 21
3287.73
 31
0.0
  0
LINE
  5
100
  8
0
  6
CONTINUOUS
 62
     3
 10
16920.802373
 20
3365.29998
 30
0.0
 11
17169.3
 21
3365.35
 31
0.0
  0
LINE
  5
101
  8
0
  6
CONTINUOUS
 62
     3
 10
17168.9
 20
3367.06
 30
0.0
 11
17160.1
 21
3365.34
 31
0.0
  0
LINE
  5
102
  8
0
  6
CONTINUOUS
 62
     3
 10
16421.8
 20
3269.35
 30
0.0
 11
16593.6
 21
3269.35
 31
0.0
  0
LINE
  5
103
  8
0
  6
CONTINUOUS
 62
     3
 10
16593.6
 20
4125.33
 30
0.0
 11
17221.6
 21
4125.33
 31
0.0
  0
LINE
  5
104
  8
0
  6
CONTINUOUS
 62
     3
 10
17081.6
 20
4365.29
 30
0.0
 11
17081.6
 21
4125.33
 31
0.0
  0
LINE
  5
105
  8
0
  6
CONTINUOUS
 62
     3
 10
17069.6
 20
4384.33
 30
0.0
 11
17069.5
 21
4365.29
 31
0.0
  0
LINE
  5
106
  8
0
  6
CONTINUOUS
 62
     3
 10
17069.6
 20
4384.33
 30
0.0
 11
17081.6
 21
4384.33
 31
0.0
  0
LINE
  5
107
  8
0
  6
CONTINUOUS
 62
     3
 10
17069.6
 20
4384.33
 30
0.0
 11
17081.6
 21
4384.33
 31
0.0
  0
LINE
  5
108
  8
0
  6
CONTINUOUS
 62
     3
 10
17081.6
 20
4384.33
 30
0.0
 11
17081.6
 21
4365.29
 31
0.0
  0
LINE
  5
109
  8
0
  6
CONTINUOUS
 62
     3
 10
17081.6
 20
4365.29
 30
0.0
 11
17221.6
 21
4365.29
 31
0.0
  0
LINE
  5
10A
  8
0
  6
CONTINUOUS
 62
     3
 10
15772.6
 20
4361.34
 30
0.0
 11
15837.6
 21
4296.34
 31
0.0
  0
LINE
  5
10B
  8
0
  6
CONTINUOUS
 62
     3
 10
15837.6
 20
4090.34
 30
0.0
 11
15467.6
 21
3726.33
 31
0.0
  0
LINE
  5
10C
  8
0
  6
CONTINUOUS
 62
     3
 10
16091.6
 20
4026.36
 30
0.0
 11
16091.6
 21
3839.66
 31
0.0
  0
LINE
  5
10D
  8
0
  6
CONTINUOUS
 62
     3
 10
15592.6
 20
4384.32
 30
0.0
 11
15601.6
 21
4384.32
 31
0.0
  0
LINE
  5
10E
  8
0
  6
CONTINUOUS
 62
     3
 10
15601.6
 20
4374.29
 30
0.0
 11
15601.6
 21
4384.32
 31
0.0
  0
LINE
  5
10F
  8
0
  6
CONTINUOUS
 62
     3
 10
15592.6
 20
4384.32
 30
0.0
 11
15592.6
 21
4219.43
 31
0.0
  0
LINE
  5
110
  8
0
  6
CONTINUOUS
 62
     3
 10
15837.6
 20
4296.34
 30
0.0
 11
15837.6
 21
4090.34
 31
0.0
  0
LINE
  5
111
  8
0
  6
CONTINUOUS
 62
     3
 10
16312.9
 20
3107.85
 30
0.0
 11
14707.9
 21
3402.69
 31
0.0
  0
LINE
  5
112
  8
0
  6
CONTINUOUS
 62
     3
 10
14653.9
 20
3109.11
 30
0.0
 11
16247.1
 21
2816.45
 31
0.0
  0
LINE
  5
113
  8
0
  6
CONTINUOUS
 62
     3
 10
13100.9
 20
3651.87
 30
0.0
 11
13063.2
 21
3447.3
 31
0.0
  0
LINE
  5
114
  8
0
  6
CONTINUOUS
 62
     3
 10
14565.8
 20
3404.14
 30
0.0
 11
14520.6
 21
3158.26
 31
0.0
  0
LINE
  5
115
  8
0
  6
CONTINUOUS
 62
     3
 10
14581.9
 20
3436.75
 30
0.0
 11
14524.1
 21
3122.04
 31
0.0
  0
LINE
  5
116
  8
0
  6
CONTINUOUS
 62
     3
 10
14709.8
 20
3413.26
 30
0.0
 11
14651.9
 21
3098.54
 31
0.0
  0
LINE
  5
117
  8
0
  6
CONTINUOUS
 62
     3
 10
14503.8
 20
3182.71
 30
0.0
 11
13063.2
 21
3447.29
 31
0.0
  0
LINE
  5
118
  8
0
  6
CONTINUOUS
 62
     3
 10
12945.9
 20
3472.9
 30
0.0
 11
13063.9
 21
3451.22
 31
0.0
  0
LINE
  5
119
  8
0
  6
CONTINUOUS
 62
     3
 10
14503.6
 20
3181.72
 30
0.0
 11
14524.2
 21
3177.93
 31
0.0
  0
LINE
  5
11A
  8
0
  6
CONTINUOUS
 62
     3
 10
14526.1
 20
3119.12
 30
0.0
 11
14649.0
 21
3096.54
 31
0.0
  0
LINE
  5
11B
  8
0
  6
CONTINUOUS
 62
     3
 10
14530.9
 20
3153.56
 30
0.0
 11
14529.8
 21
3152.76
 31
0.0
  0
LINE
  5
11C
  8
0
  6
CONTINUOUS
 62
     3
 10
14524.1
 20
3122.02
 30
0.0
 11
14526.1
 21
3119.1
 31
0.0
  0
LINE
  5
11D
  8
0
  6
CONTINUOUS
 62
     3
 10
14522.6
 20
3155.36
 30
0.0
 11
14530.0
 21
3154.0
 31
0.0
  0
LINE
  5
11E
  8
0
  6
CONTINUOUS
 62
     3
 10
14654.9
 20
3108.92
 30
0.0
 11
14654.9
 21
3109.17
 31
0.0
  0
LINE
  5
11F
  8
0
  6
CONTINUOUS
 62
     3
 10
14651.9
 20
3098.52
 30
0.0
 11
14649.0
 21
3096.51
 31
0.0
  0
LINE
  5
120
  8
0
  6
CONTINUOUS
 62
     3
 10
14651.9
 20
3098.52
 30
0.0
 11
14649.0
 21
3096.51
 31
0.0
  0
LINE
  5
121
  8
0
  6
CONTINUOUS
 62
     3
 10
14520.6
 20
3158.25
 30
0.0
 11
14522.6
 21
3155.35
 31
0.0
  0
LINE
  5
122
  8
0
  6
CONTINUOUS
 62
     3
 10
14562.0
 20
3383.49
 30
0.0
 11
13100.9
 21
3651.87
 31
0.0
  0
LINE
  5
123
  8
0
  6
CONTINUOUS
 62
     3
 10
12982.1
 20
3669.6
 30
0.0
 11
13100.2
 21
3647.92
 31
0.0
  0
LINE
  5
124
  8
0
  6
CONTINUOUS
 62
     3
 10
14707.7
 20
3416.17
 30
0.0
 11
14584.8
 21
3438.76
 31
0.0
  0
LINE
  5
125
  8
0
  6
CONTINUOUS
 62
     3
 10
14576.0
 20
3404.78
 30
0.0
 11
14568.7
 21
3406.14
 31
0.0
  0
LINE
  5
126
  8
0
  6
CONTINUOUS
 62
     3
 10
14584.8
 20
3438.74
 30
0.0
 11
14581.9
 21
3436.74
 31
0.0
  0
LINE
  5
127
  8
0
  6
CONTINUOUS
 62
     3
 10
14568.7
 20
3406.15
 30
0.0
 11
14565.8
 21
3404.14
 31
0.0
  0
LINE
  5
128
  8
0
  6
CONTINUOUS
 62
     3
 10
5864.15
 20
12468.7
 30
0.0
 11
5849.14
 21
12328.5
 31
0.0
  0
LINE
  5
129
  8
0
  6
CONTINUOUS
 62
     3
 10
5736.15
 20
12482.7
 30
0.0
 11
5864.16
 21
12468.7
 31
0.0
  0
LINE
  5
12A
  8
0
  6
CONTINUOUS
 62
     3
 10
5579.21
 20
11692.8
 30
0.0
 11
14629.3
 21
11692.8
 31
0.0
  0
LINE
  5
12B
  8
0
  6
CONTINUOUS
 62
     3
 10
5848.82
 20
12327.8
 30
0.0
 11
14934.2
 21
12327.8
 31
0.0
  0
LINE
  5
12C
  8
0
  6
CONTINUOUS
 62
     3
 10
5089.71
 20
11962.4
 30
0.0
 11
4996.69
 21
11983.3
 31
0.0
  0
LINE
  5
12D
  8
0
  6
CONTINUOUS
 62
     3
 10
4954.77
 20
12068.5
 30
0.0
 11
4819.1
 21
11899.7
 31
0.0
  0
LINE
  5
12E
  8
0
  6
CONTINUOUS
 62
     3
 10
5086.65
 20
11948.8
 30
0.0
 11
5129.3
 21
12138.4
 31
0.0
  0
LINE
  5
12F
  8
0
  6
CONTINUOUS
 62
     3
 10
5313.18
 20
11677.7
 30
0.0
 11
5573.17
 21
12290.7
 31
0.0
  0
LINE
  5
130
  8
0
  6
CONTINUOUS
 62
     3
 10
5133.17
 20
11765.5
 30
0.0
 11
5244.72
 21
12028.5
 31
0.0
  0
LINE
  5
131
  8
0
  6
CONTINUOUS
 62
     3
 10
5333.13
 20
11701.8
 30
0.0
 11
5606.13
 21
12344.8
 31
0.0
  0
LINE
  5
132
  8
0
  6
CONTINUOUS
 62
     3
 10
5559.66
 20
11646.8
 30
0.0
 11
5849.13
 21
12328.6
 31
0.0
  0
LINE
  5
133
  8
0
  6
CONTINUOUS
 62
     3
 10
5106.22
 20
11487.6
 30
0.0
 11
4982.95
 21
11603.5
 31
0.0
  0
LINE
  5
134
  8
0
  6
CONTINUOUS
 62
     3
 10
5178.29
 20
11556.8
 30
0.0
 11
5044.98
 21
11711.0
 31
0.0
  0
LINE
  5
135
  8
0
  6
CONTINUOUS
 62
     3
 10
4799.4
 20
11285.6
 30
0.0
 11
5070.25
 21
11754.8
 31
0.0
  0
LINE
  5
137
  8
0
  6
CONTINUOUS
 62
     3
 10
4548.26
 20
11430.6
 30
0.0
 11
4819.1
 21
11899.8
 31
0.0
  0
LINE
  5
138
  8
0
  6
CONTINUOUS
 62
     3
 10
4548.31
 20
11391.5
 30
0.0
 11
4548.31
 21
11430.686619
 31
0.0
  0
LINE
  5
139
  8
0
  6
CONTINUOUS
 62
     3
 10
5358.14
 20
11646.7
 30
0.0
 11
5559.66
 21
11646.7
 31
0.0
  0
LINE
  5
13A
  8
0
  6
CONTINUOUS
 62
     3
 10
5158.16
 20
11677.7
 30
0.0
 11
5313.16
 21
11677.7
 31
0.0
  0
LINE
  5
13B
  8
0
  6
CONTINUOUS
 62
     3
 10
5133.16
 20
11715.7
 30
0.0
 11
5133.16
 21
11753.7
 31
0.0
  0
LINE
  5
13C
  8
0
  6
CONTINUOUS
 62
     3
 10
5086.17
 20
11944.6
 30
0.0
 11
5086.17
 21
11715.7
 31
0.0
  0
LINE
  5
13D
  8
0
  6
CONTINUOUS
 62
     3
 10
5070.25
 20
11966.8
 30
0.0
 11
5070.25
 21
11754.7
 31
0.0
  0
LINE
  5
13E
  8
0
  6
CONTINUOUS
 62
     3
 10
5086.17
 20
11715.7
 30
0.0
 11
5133.16
 21
11715.7
 31
0.0
  0
LINE
  5
13F
  8
0
  6
CONTINUOUS
 62
     3
 10
5086.17
 20
11753.7
 30
0.0
 11
5133.14
 21
11753.7
 31
0.0
  0
LINE
  5
140
  8
0
  6
CONTINUOUS
 62
     3
 10
5133.16
 20
11738.7
 30
0.0
 11
5133.16
 21
11715.7
 31
0.0
  0
LINE
  5
141
  8
0
  6
CONTINUOUS
 62
     3
 10
5133.14
 20
11765.5
 30
0.0
 11
5133.14
 21
11702.7
 31
0.0
  0
LINE
  5
142
  8
0
  6
CONTINUOUS
 62
     3
 10
5133.15
 20
11702.7
 30
0.0
 11
5158.14
 21
11677.7
 31
0.0
  0
LINE
  5
143
  8
0
  6
CONTINUOUS
 62
     3
 10
5332.27
 20
11722.7
 30
0.0
 11
5342.05
 21
11722.7
 31
0.0
  0
LINE
  5
144
  8
0
  6
CONTINUOUS
 62
     3
 10
5333.14
 20
11701.7
 30
0.0
 11
5333.14
 21
11671.7
 31
0.0
  0
LINE
  5
145
  8
0
  6
CONTINUOUS
 62
     3
 10
5333.14
 20
11707.7
 30
0.0
 11
5333.14
 21
11684.7
 31
0.0
  0
LINE
  5
146
  8
0
  6
CONTINUOUS
 62
     3
 10
5333.14
 20
11671.7
 30
0.0
 11
5358.14
 21
11646.7
 31
0.0
  0
LINE
  5
147
  8
0
  6
CONTINUOUS
 62
     3
 10
5120.87
 20
12100.9
 30
0.0
 11
4969.71
 21
12134.9
 31
0.0
  0
LINE
  5
148
  8
0
  6
CONTINUOUS
 62
     3
 10
4904.58
 20
12431.7
 30
0.0
 11
5011.35
 21
12339.5
 31
0.0
  0
LINE
  5
149
  8
0
  6
CONTINUOUS
 62
     3
 10
4758.17
 20
12322.3
 30
0.0
 11
4758.17
 21
12076.9
 31
0.0
  0
LINE
  5
14A
  8
0
  6
CONTINUOUS
 62
     3
 10
4903.11
 20
12004.3
 30
0.0
 11
4797.2
 21
12028.2
 31
0.0
  0
LINE
  5
14B
  8
0
  6
CONTINUOUS
 62
     3
 10
4951.81
 20
12055.3
 30
0.0
 11
4969.71
 21
12134.9
 31
0.0
  0
LINE
  5
14C
  8
0
  6
CONTINUOUS
 62
     3
 10
4843.17
 20
12614.2
 30
0.0
 11
4843.17
 21
12428.8
 31
0.0
  0
LINE
  5
14D
  8
0
  6
CONTINUOUS
 62
     3
 10
4868.17
 20
12431.7
 30
0.0
 11
4904.58
 21
12431.7
 31
0.0
  0
LINE
  5
14E
  8
0
  6
CONTINUOUS
 62
     3
 10
4893.16
 20
12614.2
 30
0.0
 11
4893.16
 21
12431.7
 31
0.0
  0
LINE
  5
14F
  8
0
  6
CONTINUOUS
 62
     3
 10
5238.17
 20
12398.7
 30
0.0
 11
5573.17
 21
12290.7
 31
0.0
  0
LINE
  5
150
  8
0
  6
CONTINUOUS
 62
     3
 10
5188.16
 20
12538.7
 30
0.0
 11
5188.16
 21
12257.7
 31
0.0
  0
LINE
  5
151
  8
0
  6
CONTINUOUS
 62
     3
 10
5238.15
 20
12538.7
 30
0.0
 11
5238.15
 21
12257.7
 31
0.0
  0
LINE
  5
152
  8
0
  6
CONTINUOUS
 62
     3
 10
5152.32
 20
12240.7
 30
0.0
 11
5168.17
 21
12240.7
 31
0.0
  0
LINE
  5
153
  8
0
  6
CONTINUOUS
 62
     3
 10
5144.13
 20
12282.4
 30
0.0
 11
5239.28
 21
12117.6
 31
0.0
  0
LINE
  5
154
  8
0
  6
CONTINUOUS
 62
     3
 10
5188.16
 20
12180.7
 30
0.0
 11
5188.16
 21
12206.0
 31
0.0
  0
LINE
  5
155
  8
0
  6
CONTINUOUS
 62
     3
 10
5188.18
 20
12257.7
 30
0.0
 11
5238.17
 21
12257.7
 31
0.0
  0
LINE
  5
156
  8
0
  6
CONTINUOUS
 62
     3
 10
5077.76
 20
12273.4
 30
0.0
 11
5134.9
 21
12306.4
 31
0.0
  0
LINE
  5
157
  8
0
  6
CONTINUOUS
 62
     3
 10
5156.42
 20
12261.1
 30
0.0
 11
5102.74
 21
12230.1
 31
0.0
  0
LINE
  5
158
  8
0
  6
CONTINUOUS
 62
     3
 10
5188.18
 20
12538.7
 30
0.0
 11
5238.17
 21
12538.7
 31
0.0
  0
LINE
  5
159
  8
0
  6
CONTINUOUS
 62
     3
 10
5188.16
 20
12398.7
 30
0.0
 11
5188.16
 21
12464.7
 31
0.0
  0
LINE
  5
15A
  8
0
  6
CONTINUOUS
 62
     3
 10
5238.15
 20
12464.7
 30
0.0
 11
5238.15
 21
12400.6
 31
0.0
  0
LINE
  5
15B
  8
0
  6
CONTINUOUS
 62
     3
 10
5134.84
 20
12339.1
 30
0.0
 11
5077.69
 21
12372.1
 31
0.0
  0
LINE
  5
15C
  8
0
  6
CONTINUOUS
 62
     3
 10
5102.69
 20
12415.4
 30
0.0
 11
5159.84
 21
12382.4
 31
0.0
  0
LINE
  5
15D
  8
0
  6
CONTINUOUS
 62
     3
 10
5274.56
 20
12387.0
 30
0.0
 11
5323.66
 21
12415.4
 31
0.0
  0
LINE
  5
15E
  8
0
  6
CONTINUOUS
 62
     3
 10
5348.65
 20
12372.1
 30
0.0
 11
5338.71
 21
12366.3
 31
0.0
  0
LINE
  5
15F
  8
0
  6
CONTINUOUS
 62
     3
 10
5570.2
 20
12283.7
 30
0.0
 11
5580.24
 21
12283.7
 31
0.0
  0
LINE
  5
160
  8
0
  6
CONTINUOUS
 62
     3
 10
5606.17
 20
12344.7
 30
0.0
 11
5736.18
 21
12482.7
 31
0.0
  0
LINE
  5
161
  8
0
  6
CONTINUOUS
 62
     3
 10
11378.1
 20
11684.4
 30
0.0
 11
12006.3
 21
11443.6
 31
0.0
  0
LINE
  5
162
  8
0
  6
CONTINUOUS
 62
     3
 10
11381.3
 20
11692.8
 30
0.0
 11
11378.1
 21
11684.4
 31
0.0
  0
LINE
  5
163
  8
0
  6
CONTINUOUS
 62
     3
 10
12000.2
 20
11692.8
 30
0.0
 11
12000.2
 21
11461.7
 31
0.0
  0
LINE
  5
164
  8
0
  6
CONTINUOUS
 62
     3
 10
12185.3
 20
11392.8
 30
0.0
 11
12250.7
 21
11638.3
 31
0.0
  0
LINE
  5
165
  8
0
  6
CONTINUOUS
 62
     3
 10
12185.3
 20
11392.8
 30
0.0
 11
12023.1
 21
11432.5
 31
0.0
  0
LINE
  5
166
  8
0
  6
CONTINUOUS
 62
     3
 10
14999.2
 20
12056.8
 30
0.0
 11
14629.3
 21
11692.8
 31
0.0
  0
LINE
  5
167
  8
0
  6
CONTINUOUS
 62
     3
 10
12315.2
 20
11692.8
 30
0.0
 11
12315.2
 21
11682.8
 31
0.0
  0
LINE
  5
168
  8
0
  6
CONTINUOUS
 62
     3
 10
12308.7
 20
11682.8
 30
0.0
 11
12315.2
 21
11682.8
 31
0.0
  0
LINE
  5
169
  8
0
  6
CONTINUOUS
 62
     3
 10
14934.2
 20
12327.8
 30
0.0
 11
14999.2
 21
12262.8
 31
0.0
  0
LINE
  5
16A
  8
0
  6
CONTINUOUS
 62
     3
 10
14999.2
 20
12262.8
 30
0.0
 11
14999.2
 21
12056.8
 31
0.0
  0
LINE
  5
16B
  8
0
  6
CONTINUOUS
 62
     3
 10
3116.02
 20
15019.4
 30
0.0
 11
10741.7
 21
15019.4
 31
0.0
  0
LINE
  5
16C
  8
0
  6
CONTINUOUS
 62
     3
 10
3049.88
 20
14532.4
 30
0.0
 11
10846.8
 21
14532.4
 31
0.0
  0
LINE
  5
16D
  8
0
  6
CONTINUOUS
 62
     3
 10
2763.11
 20
14064.4
 30
0.0
 11
3033.96
 21
14533.5
 31
0.0
  0
LINE
  5
16E
  8
0
  6
CONTINUOUS
 62
     3
 10
2511.97
 20
14209.4
 30
0.0
 11
2782.81
 21
14678.5
 31
0.0
  0
LINE
  5
16F
  8
0
  6
CONTINUOUS
 62
     3
 10
3142.0
 20
14335.5
 30
0.0
 11
3008.68
 21
14489.7
 31
0.0
  0
LINE
  5
170
  8
0
  6
CONTINUOUS
 62
     3
 10
2729.36
 20
14044.9
 30
0.0
 11
2763.09
 21
14064.3
 31
0.0
  0
LINE
  5
171
  8
0
  6
CONTINUOUS
 62
     3
 10
2512.02
 20
14170.2
 30
0.0
 11
2512.02
 21
14209.5
 31
0.0
  0
LINE
  5
172
  8
0
  6
CONTINUOUS
 62
     3
 10
3069.93
 20
14266.4
 30
0.0
 11
2946.65
 21
14382.3
 31
0.0
  0
LINE
  5
173
  8
0
  6
CONTINUOUS
 62
     3
 10
2868.29
 20
15210.5
 30
0.0
 11
3111.69
 21
15000.2
 31
0.0
  0
LINE
  5
174
  8
0
  6
CONTINUOUS
 62
     3
 10
2721.88
 20
15101.0
 30
0.0
 11
2721.88
 21
14855.7
 31
0.0
  0
LINE
  5
175
  8
0
  6
CONTINUOUS
 62
     3
 10
3050.36
 20
14727.5
 30
0.0
 11
3116.02
 21
15019.4
 31
0.0
  0
LINE
  5
176
  8
0
  6
CONTINUOUS
 62
     3
 10
2918.48
 20
14847.2
 30
0.0
 11
2782.81
 21
14678.5
 31
0.0
  0
LINE
  5
177
  8
0
  6
CONTINUOUS
 62
     3
 10
3049.88
 20
14494.5
 30
0.0
 11
3096.87
 21
14494.5
 31
0.0
  0
LINE
  5
178
  8
0
  6
CONTINUOUS
 62
     3
 10
3033.96
 20
14745.5
 30
0.0
 11
3033.96
 21
14533.5
 31
0.0
  0
LINE
  5
179
  8
0
  6
CONTINUOUS
 62
     3
 10
3049.88
 20
14723.4
 30
0.0
 11
3049.88
 21
14494.5
 31
0.0
  0
LINE
  5
17A
  8
0
  6
CONTINUOUS
 62
     3
 10
3053.42
 20
14741.1
 30
0.0
 11
2960.4
 21
14762.0
 31
0.0
  0
LINE
  5
17B
  8
0
  6
CONTINUOUS
 62
     3
 10
3096.87
 20
14494.5
 30
0.0
 11
3096.87
 21
14532.4
 31
0.0
  0
LINE
  5
17C
  8
0
  6
CONTINUOUS
 62
     3
 10
3084.58
 20
14879.7
 30
0.0
 11
2933.42
 21
14913.7
 31
0.0
  0
LINE
  5
17D
  8
0
  6
CONTINUOUS
 62
     3
 10
2866.82
 20
14783.1
 30
0.0
 11
2760.91
 21
14806.9
 31
0.0
  0
LINE
  5
17E
  8
0
  6
CONTINUOUS
 62
     3
 10
2915.52
 20
14834.1
 30
0.0
 11
2933.42
 21
14913.7
 31
0.0
  0
LINE
  5
17F
  8
0
  6
CONTINUOUS
 62
     3
 10
2856.87
 20
15393.0
 30
0.0
 11
2856.87
 21
15210.5
 31
0.0
  0
LINE
  5
180
  8
0
  6
CONTINUOUS
 62
     3
 10
2806.88
 20
15393.0
 30
0.0
 11
2806.88
 21
15207.5
 31
0.0
  0
LINE
  5
181
  8
0
  6
CONTINUOUS
 62
     3
 10
2831.88
 20
15210.5
 30
0.0
 11
2868.29
 21
15210.5
 31
0.0
  0
LINE
  5
182
  8
0
  6
CONTINUOUS
 62
     3
 10
19042.9
 20
14471.5
 30
0.0
 11
28093.0
 21
14471.5
 31
0.0
  0
LINE
  5
183
  8
0
  6
CONTINUOUS
 62
     3
 10
19312.5
 20
15106.5
 30
0.0
 11
28397.9
 21
15106.5
 31
0.0
  0
LINE
  5
184
  8
0
  6
CONTINUOUS
 62
     3
 10
11283.9
 20
15062.4
 30
0.0
 11
19043.9
 21
15062.4
 31
0.0
  0
LINE
  5
185
  8
0
  6
CONTINUOUS
 62
     3
 10
11046.0
 20
14501.5
 30
0.0
 11
18805.8
 21
14501.5
 31
0.0
  0
LINE
  5
186
  8
0
  6
CONTINUOUS
 62
     3
 10
11026.9
 20
14456.5
 30
0.0
 11
11286.9
 21
15069.5
 31
0.0
  0
LINE
  5
187
  8
0
  6
CONTINUOUS
 62
     3
 10
10951.9
 20
15177.5
 30
0.0
 11
11286.9
 21
15069.5
 31
0.0
  0
LINE
  5
188
  8
0
  6
CONTINUOUS
 62
     3
 10
10901.9
 20
15317.4
 30
0.0
 11
10901.9
 21
15036.4
 31
0.0
  0
LINE
  5
189
  8
0
  6
CONTINUOUS
 62
     3
 10
10951.9
 20
15317.4
 30
0.0
 11
10951.9
 21
15036.4
 31
0.0
  0
LINE
  5
18A
  8
0
  6
CONTINUOUS
 62
     3
 10
10791.5
 20
15052.1
 30
0.0
 11
10848.6
 21
15085.1
 31
0.0
  0
LINE
  5
18B
  8
0
  6
CONTINUOUS
 62
     3
 10
10846.9
 20
14544.2
 30
0.0
 11
10958.4
 21
14807.2
 31
0.0
  0
LINE
  5
18C
  8
0
  6
CONTINUOUS
 62
     3
 10
10871.9
 20
14456.5
 30
0.0
 11
11026.9
 21
14456.5
 31
0.0
  0
LINE
  5
18D
  8
0
  6
CONTINUOUS
 62
     3
 10
10846.9
 20
14517.5
 30
0.0
 11
10846.9
 21
14494.5
 31
0.0
  0
LINE
  5
18E
  8
0
  6
CONTINUOUS
 62
     3
 10
10846.8
 20
14544.2
 30
0.0
 11
10846.8
 21
14481.5
 31
0.0
  0
LINE
  5
18F
  8
0
  6
CONTINUOUS
 62
     3
 10
10846.9
 20
14481.5
 30
0.0
 11
10871.8
 21
14456.5
 31
0.0
  0
LINE
  5
190
  8
0
  6
CONTINUOUS
 62
     3
 10
10857.8
 20
15061.1
 30
0.0
 11
10953.0
 21
14896.3
 31
0.0
  0
LINE
  5
191
  8
0
  6
CONTINUOUS
 62
     3
 10
10901.9
 20
14959.5
 30
0.0
 11
10901.9
 21
14984.7
 31
0.0
  0
LINE
  5
192
  8
0
  6
CONTINUOUS
 62
     3
 10
10901.9
 20
15036.4
 30
0.0
 11
10951.9
 21
15036.4
 31
0.0
  0
LINE
  5
193
  8
0
  6
CONTINUOUS
 62
     3
 10
10870.1
 20
15039.8
 30
0.0
 11
10816.4
 21
15008.8
 31
0.0
  0
LINE
  5
194
  8
0
  6
CONTINUOUS
 62
     3
 10
10848.5
 20
15117.8
 30
0.0
 11
10791.4
 21
15150.8
 31
0.0
  0
LINE
  5
195
  8
0
  6
CONTINUOUS
 62
     3
 10
10988.3
 20
15165.8
 30
0.0
 11
11037.4
 21
15194.1
 31
0.0
  0
LINE
  5
196
  8
0
  6
CONTINUOUS
 62
     3
 10
10901.9
 20
15317.4
 30
0.0
 11
10951.9
 21
15317.4
 31
0.0
  0
LINE
  5
197
  8
0
  6
CONTINUOUS
 62
     3
 10
10901.9
 20
15177.4
 30
0.0
 11
10901.9
 21
15243.4
 31
0.0
  0
LINE
  5
198
  8
0
  6
CONTINUOUS
 62
     3
 10
10951.9
 20
15243.4
 30
0.0
 11
10951.9
 21
15179.4
 31
0.0
  0
LINE
  5
199
  8
0
  6
CONTINUOUS
 62
     3
 10
10816.4
 20
15194.1
 30
0.0
 11
10873.5
 21
15161.1
 31
0.0
  0
LINE
  5
19A
  8
0
  6
CONTINUOUS
 62
     3
 10
11062.4
 20
15150.8
 30
0.0
 11
11052.4
 21
15145.1
 31
0.0
  0
LINE
  5
19B
  8
0
  6
CONTINUOUS
 62
     3
 10
18796.8
 20
14450.5
 30
0.0
 11
18821.8
 21
14425.5
 31
0.0
  0
LINE
  5
19C
  8
0
  6
CONTINUOUS
 62
     3
 10
19023.4
 20
14425.5
 30
0.0
 11
19312.8
 21
15107.3
 31
0.0
  0
LINE
  5
19D
  8
0
  6
CONTINUOUS
 62
     3
 10
18821.8
 20
14425.5
 30
0.0
 11
19023.4
 21
14425.5
 31
0.0
  0
LINE
  5
19E
  8
0
  6
CONTINUOUS
 62
     3
 10
19199.9
 20
15261.4
 30
0.0
 11
19327.9
 21
15247.4
 31
0.0
  0
LINE
  5
19F
  8
0
  6
CONTINUOUS
 62
     3
 10
18796.8
 20
14480.5
 30
0.0
 11
19069.8
 21
15123.5
 31
0.0
  0
LINE
  5
1A0
  8
0
  6
CONTINUOUS
 62
     3
 10
18796.8
 20
14486.5
 30
0.0
 11
18796.8
 21
14463.5
 31
0.0
  0
LINE
  5
1A1
  8
0
  6
CONTINUOUS
 62
     3
 10
18796.8
 20
14480.5
 30
0.0
 11
18796.8
 21
14450.5
 31
0.0
  0
LINE
  5
1A2
  8
0
  6
CONTINUOUS
 62
     3
 10
19069.9
 20
15123.5
 30
0.0
 11
19199.9
 21
15261.4
 31
0.0
  0
LINE
  5
1A3
  8
0
  6
CONTINUOUS
 62
     3
 10
19327.9
 20
15247.4
 30
0.0
 11
19312.8
 21
15107.3
 31
0.0
  0
LINE
  5
1A4
  8
0
  6
CONTINUOUS
 62
     3
 10
24841.8
 20
14463.2
 30
0.0
 11
25470.0
 21
14222.4
 31
0.0
  0
LINE
  5
1A5
  8
0
  6
CONTINUOUS
 62
     3
 10
25463.9
 20
14471.5
 30
0.0
 11
25463.9
 21
14240.4
 31
0.0
  0
LINE
  5
1A6
  8
0
  6
CONTINUOUS
 62
     3
 10
25649.0
 20
14171.5
 30
0.0
 11
25486.8
 21
14211.3
 31
0.0
  0
LINE
  5
1A7
  8
0
  6
CONTINUOUS
 62
     3
 10
25649.0
 20
14171.5
 30
0.0
 11
25714.4
 21
14417.0
 31
0.0
  0
LINE
  5
1A8
  8
0
  6
CONTINUOUS
 62
     3
 10
24845.0
 20
14471.6
 30
0.0
 11
24841.8
 21
14463.2
 31
0.0
  0
LINE
  5
1A9
  8
0
  6
CONTINUOUS
 62
     3
 10
25772.4
 20
14461.5
 30
0.0
 11
25778.9
 21
14461.5
 31
0.0
  0
LINE
  5
1AA
  8
0
  6
CONTINUOUS
 62
     3
 10
25778.9
 20
14471.5
 30
0.0
 11
25778.9
 21
14461.5
 31
0.0
  0
LINE
  5
1AB
  8
0
  6
CONTINUOUS
 62
     3
 10
28462.9
 20
14835.5
 30
0.0
 11
28093.0
 21
14471.5
 31
0.0
  0
LINE
  5
1AC
  8
0
  6
CONTINUOUS
 62
     3
 10
28397.9
 20
15106.5
 30
0.0
 11
28462.9
 21
15041.5
 31
0.0
  0
LINE
  5
1AD
  8
0
  6
CONTINUOUS
 62
     3
 10
28462.9
 20
15041.5
 30
0.0
 11
28462.9
 21
14835.5
 31
0.0
  0
LINE
  5
1AE
  8
0
  6
CONTINUOUS
 62
     7
 10
18459.5
 20
2799.04
 30
0.0
 11
28959.5
 21
2799.04
 31
0.0
  0
LINE
  5
1AF
  8
0
  6
CONTINUOUS
 62
     7
 10
18459.5
 20
3499.04
 30
0.0
 11
28959.5
 21
3499.04
 31
0.0
  0
LINE
  5
1B0
  8
0
  6
CONTINUOUS
 62
     7
 10
18459.5
 20
4199.04
 30
0.0
 11
28959.5
 21
4199.04
 31
0.0
  0
LINE
  5
1B1
  8
0
  6
CONTINUOUS
 62
     7
 10
18459.5
 20
4899.04
 30
0.0
 11
28959.5
 21
4899.04
 31
0.0
  0
LINE
  5
1B2
  8
0
  6
CONTINUOUS
 62
     7
 10
18459.5
 20
4899.04
 30
0.0
 11
18459.5
 21
2799.04
 31
0.0
  0
LINE
  5
1B3
  8
0
  6
CONTINUOUS
 62
     7
 10
22328.3
 20
4899.04
 30
0.0
 11
22328.3
 21
2799.04
 31
0.0
  0
LINE
  5
1B4
  8
0
  6
CONTINUOUS
 62
     7
 10
28959.5
 20
4899.04
 30
0.0
 11
28959.5
 21
2799.04
 31
0.0
  0
LINE
  5
1BD
  8
0
  6
CONTINUOUS
 62
     3
 10
5138.32
 20
12178.5
 30
0.0
 11
5152.32
 21
12240.7
 31
0.0
  0
LINE
  5
1BE
  8
0
  6
CONTINUOUS
 62
     3
 10
4971.51
 20
8525.73
 30
0.0
 11
4971.51
 21
8487.74
 31
0.0
  0
LINE
  5
1C3
  8
0
  6
CONTINUOUS
 62
     3
 10
6443.26
 20
12261.8
 30
0.0
 11
6383.26
 21
12321.8
 31
0.0
  0
LINE
  5
1C4
  8
0
  6
CONTINUOUS
 62
     3
 10
6443.26
 20
12261.8
 30
0.0
 11
7223.26
 21
12261.8
 31
0.0
  0
LINE
  5
1C5
  8
0
  6
CONTINUOUS
 62
     3
 10
7223.25
 20
12261.8
 30
0.0
 11
7283.25
 21
12321.8
 31
0.0
  0
LINE
  5
1C6
  8
0
  6
CONTINUOUS
 62
     3
 10
5246.23
 20
12527.0
 30
0.0
 11
5503.81
 21
12485.3
 31
0.0
  0
LINE
  5
1C7
  8
0
  6
CONTINUOUS
 62
     3
 10
5327.97
 20
12489.5
 30
0.0
 11
5499.98
 21
12461.7
 31
0.0
  0
LINE
  5
1C8
  8
0
  6
CONTINUOUS
 62
     3
 10
5929.24
 20
12422.6
 30
0.0
 11
5923.48
 21
12387.0
 31
0.0
  0
LINE
  5
1C9
  8
0
  6
CONTINUOUS
 62
     3
 10
5505.33
 20
12494.7
 30
0.0
 11
5715.44
 21
12460.7
 31
0.0
  0
LINE
  5
1CA
  8
0
  6
CONTINUOUS
 62
     3
 10
5498.46
 20
12452.3
 30
0.0
 11
5679.83
 21
12422.9
 31
0.0
  0
LINE
  5
1CB
  8
0
  6
CONTINUOUS
 62
     3
 10
5505.33
 20
12494.7
 30
0.0
 11
5498.46
 21
12452.3
 31
0.0
  0
LINE
  5
1CC
  8
0
  6
CONTINUOUS
 62
     3
 10
5860.4
 20
12433.7
 30
0.0
 11
5929.24
 21
12422.6
 31
0.0
  0
LINE
  5
1CD
  8
0
  6
CONTINUOUS
 62
     3
 10
5856.57
 20
12397.9
 30
0.0
 11
5923.48
 21
12387.0
 31
0.0
  0
LINE
  5
1CF
  8
0
  6
CONTINUOUS
 62
     3
 10
19907.0
 20
15040.5
 30
0.0
 11
20687.0
 21
15040.5
 31
0.0
  0
LINE
  5
1D0
  8
0
  6
CONTINUOUS
 62
     3
 10
19907.0
 20
15040.5
 30
0.0
 11
19847.0
 21
15100.5
 31
0.0
  0
LINE
  5
1D3
  8
0
  6
CONTINUOUS
 62
     3
 10
20687.0
 20
15040.5
 30
0.0
 11
20747.0
 21
15100.5
 31
0.0
  0
LINE
  5
1D5
  8
0
  6
CONTINUOUS
 62
     3
 10
10951.9
 20
15308.2
 30
0.0
 11
18961.1
 21
15210.8
 31
0.0
  0
LINE
  5
1D6
  8
0
  6
CONTINUOUS
 62
     3
 10
11015.8
 20
15283.4
 30
0.0
 11
18960.8
 21
15186.8
 31
0.0
  0
LINE
  5
1D7
  8
0
  6
CONTINUOUS
 62
     3
 10
19391.1
 20
15211.5
 30
0.0
 11
19390.7
 21
15175.5
 31
0.0
  0
LINE
  5
1D8
  8
0
  6
CONTINUOUS
 62
     3
 10
18961.2
 20
15220.3
 30
0.0
 11
19158.8
 21
15217.9
 31
0.0
  0
LINE
  5
1D9
  8
0
  6
CONTINUOUS
 62
     3
 10
18960.7
 20
15177.3
 30
0.0
 11
19118.8
 21
15175.3
 31
0.0
  0
LINE
  5
1DA
  8
0
  6
CONTINUOUS
 62
     3
 10
18961.2
 20
15220.3
 30
0.0
 11
18960.7
 21
15177.3
 31
0.0
  0
LINE
  5
1DB
  8
0
  6
CONTINUOUS
 62
     3
 10
19324.1
 20
15212.3
 30
0.0
 11
19391.1
 21
15211.5
 31
0.0
  0
LINE
  5
1DC
  8
0
  6
CONTINUOUS
 62
     3
 10
19320.3
 20
15176.4
 30
0.0
 11
19390.7
 21
15175.5
 31
0.0
  0
LINE
  5
1DE
  8
0
  6
CONTINUOUS
 62
     3
 10
7281.61
 20
9033.82
 30
0.0
 11
8061.61
 21
9033.82
 31
0.0
  0
LINE
  5
1DF
  8
0
  6
CONTINUOUS
 62
     3
 10
7281.6
 20
9033.81
 30
0.0
 11
7221.6
 21
9093.81
 31
0.0
  0
LINE
  5
1E2
  8
0
  6
CONTINUOUS
 62
     3
 10
8061.59
 20
9033.81
 30
0.0
 11
8121.59
 21
9093.81
 31
0.0
  0
LINE
  5
1E4
  8
0
  6
CONTINUOUS
 62
     3
 10
5576.5
 20
9300.32
 30
0.0
 11
6338.11
 21
9231.92
 31
0.0
  0
LINE
  5
1E5
  8
0
  6
CONTINUOUS
 62
     3
 10
5654.22
 20
9269.25
 30
0.0
 11
6335.96
 21
9208.02
 31
0.0
  0
LINE
  5
1E6
  8
0
  6
CONTINUOUS
 62
     3
 10
6766.91
 20
9199.43
 30
0.0
 11
6763.69
 21
9163.58
 31
0.0
  0
LINE
  5
1E7
  8
0
  6
CONTINUOUS
 62
     3
 10
6338.96
 20
9241.38
 30
0.0
 11
6544.54
 21
9222.91
 31
0.0
  0
LINE
  5
1E8
  8
0
  6
CONTINUOUS
 62
     3
 10
6335.11
 20
9198.55
 30
0.0
 11
6507.05
 21
9183.11
 31
0.0
  0
LINE
  5
1E9
  8
0
  6
CONTINUOUS
 62
     3
 10
6338.96
 20
9241.38
 30
0.0
 11
6335.11
 21
9198.55
 31
0.0
  0
LINE
  5
1EA
  8
0
  6
CONTINUOUS
 62
     3
 10
6700.13
 20
9205.43
 30
0.0
 11
6766.91
 21
9199.43
 31
0.0
  0
LINE
  5
1EB
  8
0
  6
CONTINUOUS
 62
     3
 10
6694.9
 20
9169.75
 30
0.0
 11
6763.69
 21
9163.58
 31
0.0
  0
LINE
  5
1EC
  8
0
  6
CONTINUOUS
 62
     3
 10
7281.61
 20
4295.35
 30
0.0
 11
8061.61
 21
4295.35
 31
0.0
  0
LINE
  5
1EE
  8
0
  6
CONTINUOUS
 62
     3
 10
7281.6
 20
4295.34
 30
0.0
 11
7221.6
 21
4355.35
 31
0.0
  0
LINE
  5
1F1
  8
0
  6
CONTINUOUS
 62
     3
 10
8061.59
 20
4295.34
 30
0.0
 11
8121.59
 21
4355.34
 31
0.0
  0
LINE
  5
1F3
  8
0
  6
CONTINUOUS
 62
     3
 10
5576.5
 20
4561.85
 30
0.0
 11
6338.11
 21
4493.45
 31
0.0
  0
LINE
  5
1F4
  8
0
  6
CONTINUOUS
 62
     3
 10
5654.22
 20
4530.78
 30
0.0
 11
6335.96
 21
4469.55
 31
0.0
  0
LINE
  5
1F5
  8
0
  6
CONTINUOUS
 62
     3
 10
6766.91
 20
4460.97
 30
0.0
 11
6763.69
 21
4425.11
 31
0.0
  0
LINE
  5
1F6
  8
0
  6
CONTINUOUS
 62
     3
 10
6338.96
 20
4502.91
 30
0.0
 11
6544.55
 21
4484.45
 31
0.0
  0
LINE
  5
1F7
  8
0
  6
CONTINUOUS
 62
     3
 10
6335.11
 20
4460.08
 30
0.0
 11
6507.05
 21
4444.64
 31
0.0
  0
LINE
  5
1F8
  8
0
  6
CONTINUOUS
 62
     3
 10
6338.96
 20
4502.91
 30
0.0
 11
6335.11
 21
4460.08
 31
0.0
  0
LINE
  5
1F9
  8
0
  6
CONTINUOUS
 62
     3
 10
6700.13
 20
4466.96
 30
0.0
 11
6766.91
 21
4460.97
 31
0.0
  0
LINE
  5
1FA
  8
0
  6
CONTINUOUS
 62
     3
 10
6694.9
 20
4431.29
 30
0.0
 11
6763.69
 21
4425.11
 31
0.0
  0
LINE
  5
1FB
  8
0
  6
CONTINUOUS
 62
     3
 10
4971.51
 20
3787.26
 30
0.0
 11
4971.51
 21
3749.27
 31
0.0
  0
ARC
  5
208
  8
0
  6
CONTINUOUS
 62
     3
 10
4531.59
 20
8163.79
 30
0.0
 40
145.0
 50
180.1
 51
300.054
  0
ARC
  5
209
  8
0
  6
CONTINUOUS
 62
     3
 10
4531.59
 20
8163.79
 30
0.0
 40
295.008
 50
91.465
 51
28.533
  0
CIRCLE
  5
20A
  8
0
  6
CONTINUOUS
 62
     3
 10
4531.59
 20
8163.79
 30
0.0
 40
76.1997
  0
ARC
  5
20B
  8
0
  6
CONTINUOUS
 62
     3
 10
4706.52
 20
9093.77
 30
0.0
 40
110.0
 50
90.0
 51
180.261
  0
ARC
  5
20C
  8
0
  6
CONTINUOUS
 62
     3
 10
4646.52
 20
8848.95
 30
0.0
 40
50.0
 50
180.002
 51
257.324
  0
ARC
  5
20D
  8
0
  6
CONTINUOUS
 62
     3
 10
4706.52
 20
9093.77
 30
0.0
 40
275.0
 50
95.2154
 51
246.422
  0
CIRCLE
  5
20E
  8
0
  6
CONTINUOUS
 62
     3
 10
4531.59
 20
8163.79
 30
0.0
 40
64.9999
  0
ARC
  5
20F
  8
0
  6
CONTINUOUS
 62
     3
 10
4848.58
 20
8813.78
 30
0.0
 40
59.9998
 50
166.933
 51
257.324
  0
ARC
  5
210
  8
0
  6
CONTINUOUS
 62
     3
 10
4978.8
 20
8296.08
 30
0.0
 40
49.9997
 50
226.826
 51
40.8399
  0
ARC
  5
211
  8
0
  6
CONTINUOUS
 62
     3
 10
5551.5
 20
9094.73
 30
0.0
 40
202.5
 50
5.40282
 51
82.9069
  0
ARC
  5
212
  8
0
  6
CONTINUOUS
 62
     3
 10
5694.46
 20
9131.07
 30
0.0
 40
15.0
 50
14.2599
 51
120.016
  0
ARC
  5
213
  8
0
  6
CONTINUOUS
 62
     3
 10
5408.56
 20
9131.09
 30
0.0
 40
15.0
 50
60.0098
 51
165.709
  0
ARC
  5
214
  8
0
  6
CONTINUOUS
 62
     3
 10
5551.5
 20
9094.73
 30
0.0
 40
80.0
 50
108.199
 51
210.313
  0
ARC
  5
215
  8
0
  6
CONTINUOUS
 62
     3
 10
5551.5
 20
9094.73
 30
0.0
 40
202.5
 50
97.0889
 51
276.699
  0
CIRCLE
  5
216
  8
0
  6
CONTINUOUS
 62
     3
 10
4706.52
 20
9093.77
 30
0.0
 40
72.4999
  0
ARC
  5
217
  8
0
  6
CONTINUOUS
 62
     3
 10
5551.5
 20
9094.73
 30
0.0
 40
162.5
 50
225.728
 51
254.264
  0
ARC
  5
218
  8
0
  6
CONTINUOUS
 62
     3
 10
5511.5
 20
8952.78
 30
0.0
 40
15.0
 50
254.259
 51
0.016788
  0
CIRCLE
  5
219
  8
0
  6
CONTINUOUS
 62
     3
 10
4706.52
 20
9093.77
 30
0.0
 40
42.0
  0
ARC
  5
21A
  8
0
  6
CONTINUOUS
 62
     3
 10
5408.56
 20
9058.39
 30
0.0
 40
15.0
 50
194.26
 51
300.016
  0
ARC
  5
21B
  8
0
  6
CONTINUOUS
 62
     3
 10
5448.54
 20
8989.13
 30
0.0
 40
15.0001
 50
120.009
 51
225.708
  0
ARC
  5
21C
  8
0
  6
CONTINUOUS
 62
     3
 10
5551.5
 20
9094.73
 30
0.0
 40
162.5
 50
165.728
 51
194.264
  0
ARC
  5
21D
  8
0
  6
CONTINUOUS
 62
     3
 10
5490.99
 20
8839.56
 30
0.0
 40
99.9997
 50
337.017
 51
29.9994
  0
ARC
  5
21E
  8
0
  6
CONTINUOUS
 62
     3
 10
5551.5
 20
9094.73
 30
0.0
 40
162.5
 50
11.6256
 51
14.2632
  0
ARC
  5
21F
  8
0
  6
CONTINUOUS
 62
     3
 10
5591.5
 20
9236.7
 30
0.0
 40
15.0
 50
74.259
 51
180.017
  0
ARC
  5
220
  8
0
  6
CONTINUOUS
 62
     3
 10
4706.52
 20
9093.77
 30
0.0
 40
275.0
 50
342.0777
 51
84.7853
  0
ARC
  5
221
  8
0
  6
CONTINUOUS
 62
     3
 10
5551.5
 20
9094.73
 30
0.0
 40
162.5
 50
105.728
 51
134.264
  0
ARC
  5
222
  8
0
  6
CONTINUOUS
 62
     3
 10
5511.52
 20
9236.7
 30
0.0
 40
15.0
 50
0.009339
 51
105.708
  0
ARC
  5
223
  8
0
  6
CONTINUOUS
 62
     3
 10
5448.56
 20
9200.36
 30
0.0
 40
14.9998
 50
134.259
 51
240.016
  0
ARC
  5
224
  8
0
  6
CONTINUOUS
 62
     3
 10
4706.52
 20
9386.26
 30
0.0
 40
25.0
 50
0.0
 51
83.1085
  0
ARC
  5
225
  8
0
  6
CONTINUOUS
 62
     3
 10
4706.52
 20
9386.26
 30
0.0
 40
25.0
 50
96.8927
 51
181.385
  0
ARC
  5
226
  8
0
  6
CONTINUOUS
 62
     3
 10
5551.5
 20
9094.73
 30
0.0
 40
162.5
 50
45.7276
 51
74.2636
  0
ARC
  5
227
  8
0
  6
CONTINUOUS
 62
     3
 10
5654.47
 20
9200.34
 30
0.0
 40
15.0001
 50
300.009
 51
45.7082
  0
ARC
  5
228
  8
0
  6
CONTINUOUS
 62
     3
 10
12868.6
 20
8233.68
 30
0.0
 40
30.0
 50
180.0
 51
256.228
  0
ARC
  5
229
  8
0
  6
CONTINUOUS
 62
     3
 10
13147.1
 20
8394.8
 30
0.0
 40
60.0
 50
89.9963
 51
165.067
  0
ARC
  5
22A
  8
0
  6
CONTINUOUS
 62
     3
 10
15600.3
 20
8382.6
 30
0.0
 40
90.0002
 50
120.001
 51
146.565
  0
ARC
  5
22B
  8
0
  6
CONTINUOUS
 62
     3
 10
14891.7
 20
7726.76
 30
0.0
 40
129.0
 50
146.565
 51
210.0
  0
CIRCLE
  5
22C
  8
0
  6
CONTINUOUS
 62
     3
 10
14920.8
 20
7770.89
 30
0.0
 40
76.1999
  0
ARC
  5
22D
  8
0
  6
CONTINUOUS
 62
     3
 10
15304.4
 20
7934.44
 30
0.0
 40
90.0005
 50
146.565
 51
210.0
  0
ARC
  5
22E
  8
0
  6
CONTINUOUS
 62
     3
 10
15035.1
 20
7258.42
 30
0.0
 40
18.9999
 50
210.002
 51
270.0
  0
ARC
  5
230
  8
0
  6
CONTINUOUS
 62
     3
 10
15384.6
 20
7365.52
 30
0.0
 40
19.0001
 50
120.0
 51
210.001
  0
ARC
  5
231
  8
0
  6
CONTINUOUS
 62
     3
 10
15529.0
 20
7117.47
 30
0.0
 40
19.9998
 50
210.0
 51
300.0
  0
ARC
  5
232
  8
0
  6
CONTINUOUS
 62
     3
 10
15559.6
 20
7466.51
 30
0.0
 40
18.9997
 50
30.0006
 51
120.0
  0
ARC
  5
233
  8
0
  6
CONTINUOUS
 62
     3
 10
15605.6
 20
7184.79
 30
0.0
 40
60.0001
 50
74.9999
 51
210.0
  0
ARC
  5
234
  8
0
  6
CONTINUOUS
 62
     3
 10
15546.3
 20
7127.47
 30
0.0
 40
19.9998
 50
300.0
 51
30.0003
  0
ARC
  5
235
  8
0
  6
CONTINUOUS
 62
     3
 10
15644.2
 20
9066.12
 30
0.0
 40
19.0001
 50
120.0
 51
146.565
  0
CIRCLE
  5
236
  8
0
  6
CONTINUOUS
 62
     3
 10
15721.6
 20
8983.81
 30
0.0
 40
76.1999
  0
ARC
  5
237
  8
0
  6
CONTINUOUS
 62
     3
 10
15761.1
 20
8475.44
 30
0.0
 40
90.0001
 50
30.0
 51
120.0
  0
ARC
  5
238
  8
0
  6
CONTINUOUS
 62
     3
 10
16471.6
 20
7684.78
 30
0.0
 40
120.0
 50
210.0
 51
30.0
  0
CIRCLE
  5
239
  8
0
  6
CONTINUOUS
 62
     3
 10
16471.6
 20
7684.78
 30
0.0
 40
50.0
  0
CIRCLE
  5
23A
  8
0
  6
CONTINUOUS
 62
     3
 10
14920.7
 20
7770.9
 30
0.0
 40
175.0
  0
CIRCLE
  5
23B
  8
0
  6
CONTINUOUS
 62
     3
 10
12963.6
 20
8309.79
 30
0.0
 40
100.0
  0
ARC
  5
23C
  8
0
  6
CONTINUOUS
 62
     3
 10
4978.8
 20
3557.61
 30
0.0
 40
49.9997
 50
226.826
 51
40.8399
  0
ARC
  5
23D
  8
0
  6
CONTINUOUS
 62
     3
 10
4531.59
 20
3425.32
 30
0.0
 40
295.008
 50
89.437666
 51
30.558003
  0
CIRCLE
  5
23E
  8
0
  6
CONTINUOUS
 62
     3
 10
4531.59
 20
3425.32
 30
0.0
 40
64.9999
  0
CIRCLE
  5
23F
  8
0
  6
CONTINUOUS
 62
     3
 10
4531.59
 20
3425.32
 30
0.0
 40
76.1997
  0
ARC
  5
240
  8
0
  6
CONTINUOUS
 62
     3
 10
4531.59
 20
3425.32
 30
0.0
 40
145.0
 50
180.1
 51
300.054
  0
ARC
  5
241
  8
0
  6
CONTINUOUS
 62
     3
 10
4706.52
 20
4355.3
 30
0.0
 40
275.0
 50
95.2154
 51
246.422
  0
ARC
  5
242
  8
0
  6
CONTINUOUS
 62
     3
 10
4646.52
 20
4110.48
 30
0.0
 40
50.0
 50
180.002
 51
257.324
  0
ARC
  5
243
  8
0
  6
CONTINUOUS
 62
     3
 10
4848.58
 20
4075.31
 30
0.0
 40
59.9998
 50
166.933
 51
257.324
  0
ARC
  5
244
  8
0
  6
CONTINUOUS
 62
     3
 10
4706.52
 20
4355.3
 30
0.0
 40
275.0
 50
342.0778
 51
84.7853
  0
CIRCLE
  5
245
  8
0
  6
CONTINUOUS
 62
     3
 10
4706.52
 20
4355.3
 30
0.0
 40
42.0
  0
CIRCLE
  5
246
  8
0
  6
CONTINUOUS
 62
     3
 10
4706.52
 20
4355.3
 30
0.0
 40
72.4999
  0
ARC
  5
247
  8
0
  6
CONTINUOUS
 62
     3
 10
4706.52
 20
4355.3
 30
0.0
 40
110.0
 50
90.0
 51
180.261
  0
ARC
  5
248
  8
0
  6
CONTINUOUS
 62
     3
 10
4706.52
 20
4647.79
 30
0.0
 40
25.0
 50
0.0
 51
83.1085
  0
ARC
  5
249
  8
0
  6
CONTINUOUS
 62
     3
 10
4706.52
 20
4647.79
 30
0.0
 40
25.0
 50
96.8927
 51
181.385
  0
ARC
  5
24A
  8
0
  6
CONTINUOUS
 62
     3
 10
5448.54
 20
4250.66
 30
0.0
 40
15.0001
 50
120.009
 51
225.708
  0
ARC
  5
24B
  8
0
  6
CONTINUOUS
 62
     3
 10
5551.5
 20
4356.26
 30
0.0
 40
202.5
 50
97.0889
 51
276.699
  0
ARC
  5
24C
  8
0
  6
CONTINUOUS
 62
     3
 10
5511.5
 20
4214.31
 30
0.0
 40
15.0
 50
254.259
 51
0.016788
  0
ARC
  5
24D
  8
0
  6
CONTINUOUS
 62
     3
 10
5551.5
 20
4356.26
 30
0.0
 40
162.5
 50
225.728
 51
254.264
  0
ARC
  5
24E
  8
0
  6
CONTINUOUS
 62
     3
 10
5490.99
 20
4101.09
 30
0.0
 40
99.9997
 50
337.017
 51
29.9994
  0
ARC
  5
24F
  8
0
  6
CONTINUOUS
 62
     3
 10
5551.5
 20
4356.26
 30
0.0
 40
202.5
 50
5.40282
 51
82.9069
  0
ARC
  5
250
  8
0
  6
CONTINUOUS
 62
     3
 10
5511.52
 20
4498.23
 30
0.0
 40
15.0
 50
0.009339
 51
105.708
  0
ARC
  5
251
  8
0
  6
CONTINUOUS
 62
     3
 10
5551.5
 20
4356.26
 30
0.0
 40
80.0
 50
108.199
 51
210.313
  0
ARC
  5
252
  8
0
  6
CONTINUOUS
 62
     3
 10
5551.5
 20
4356.26
 30
0.0
 40
162.5
 50
165.728
 51
194.264
  0
ARC
  5
253
  8
0
  6
CONTINUOUS
 62
     3
 10
5408.56
 20
4319.92
 30
0.0
 40
15.0
 50
194.26
 51
300.016
  0
ARC
  5
254
  8
0
  6
CONTINUOUS
 62
     3
 10
5408.56
 20
4392.62
 30
0.0
 40
15.0
 50
60.0098
 51
165.709
  0
ARC
  5
255
  8
0
  6
CONTINUOUS
 62
     3
 10
5448.56
 20
4461.89
 30
0.0
 40
14.9998
 50
134.259
 51
240.016
  0
ARC
  5
256
  8
0
  6
CONTINUOUS
 62
     3
 10
5551.5
 20
4356.26
 30
0.0
 40
162.5
 50
105.728
 51
134.264
  0
ARC
  5
257
  8
0
  6
CONTINUOUS
 62
     3
 10
5551.5
 20
4356.26
 30
0.0
 40
207.0
 50
80.8059
 51
83.0619
  0
ARC
  5
258
  8
0
  6
CONTINUOUS
 62
     3
 10
5654.47
 20
4461.87
 30
0.0
 40
15.0001
 50
300.009
 51
45.7082
  0
ARC
  5
259
  8
0
  6
CONTINUOUS
 62
     3
 10
5551.5
 20
4356.26
 30
0.0
 40
162.5
 50
45.7276
 51
74.2636
  0
ARC
  5
25A
  8
0
  6
CONTINUOUS
 62
     3
 10
5591.5
 20
4498.23
 30
0.0
 40
15.0
 50
74.259
 51
180.017
  0
ARC
  5
25B
  8
0
  6
CONTINUOUS
 62
     3
 10
5551.5
 20
4356.26
 30
0.0
 40
162.5
 50
11.6256
 51
14.2632
  0
ARC
  5
25C
  8
0
  6
CONTINUOUS
 62
     3
 10
5694.46
 20
4392.6
 30
0.0
 40
15.0
 50
14.2599
 51
120.016
  0
ARC
  5
25D
  8
0
  6
CONTINUOUS
 62
     3
 10
12868.6
 20
3495.21
 30
0.0
 40
30.0
 50
180.0
 51
256.228
  0
ARC
  5
25E
  8
0
  6
CONTINUOUS
 62
     3
 10
16395.3
 20
2898.07
 30
0.0
 40
129.0
 50
206.565
 51
270.0
  0
CIRCLE
  5
25F
  8
0
  6
CONTINUOUS
 62
     3
 10
16371.6
 20
2945.33
 30
0.0
 40
76.1999
  0
ARC
  5
260
  8
0
  6
CONTINUOUS
 62
     3
 10
13147.1
 20
3656.33
 30
0.0
 40
60.0
 50
89.9963
 51
165.067
  0
ARC
  5
262
  8
0
  6
CONTINUOUS
 62
     3
 10
16872.6
 20
2788.08
 30
0.0
 40
18.9999
 50
270.002
 51
330.0
  0
ARC
  5
263
  8
0
  6
CONTINUOUS
 62
     3
 10
16954.6
 20
3144.31
 30
0.0
 40
19.0001
 50
180.0
 51
270.001
  0
ARC
  5
264
  8
0
  6
CONTINUOUS
 62
     3
 10
17221.6
 20
3245.34
 30
0.0
 40
60.0001
 50
135.0
 51
270.0
  0
ARC
  5
265
  8
0
  6
CONTINUOUS
 62
     3
 10
17241.6
 20
3145.34
 30
0.0
 40
19.9998
 50
270.0
 51
0.000014
  0
ARC
  5
266
  8
0
  6
CONTINUOUS
 62
     3
 10
17241.6
 20
3165.32
 30
0.0
 40
19.9998
 50
0.000014
 51
90.0003
  0
ARC
  5
267
  8
0
  6
CONTINUOUS
 62
     3
 10
16954.6
 20
3346.36
 30
0.0
 40
18.9997
 50
90.0006
 51
180.0
  0
ARC
  5
268
  8
0
  6
CONTINUOUS
 62
     3
 10
16421.8
 20
3359.31
 30
0.0
 40
90.0005
 50
206.565
 51
270.0
  0
ARC
  5
269
  8
0
  6
CONTINUOUS
 62
     3
 10
17221.6
 20
4245.31
 30
0.0
 40
120.0
 50
270.0
 51
90.0
  0
CIRCLE
  5
26A
  8
0
  6
CONTINUOUS
 62
     3
 10
17221.6
 20
4245.31
 30
0.0
 40
50.0
  0
ARC
  5
26B
  8
0
  6
CONTINUOUS
 62
     3
 10
16181.6
 20
4025.33
 30
0.0
 40
90.0001
 50
90.0
 51
180.0
  0
CIRCLE
  5
26C
  8
0
  6
CONTINUOUS
 62
     3
 10
15721.6
 20
4245.31
 30
0.0
 40
76.1999
  0
ARC
  5
26D
  8
0
  6
CONTINUOUS
 62
     3
 10
16181.6
 20
3839.65
 30
0.0
 40
90.0002
 50
180.001
 51
206.565
  0
ARC
  5
26E
  8
0
  6
CONTINUOUS
 62
     3
 10
15611.6
 20
4219.43
 30
0.0
 40
19.0001
 50
180.0
 51
206.565
  0
CIRCLE
  5
26F
  8
0
  6
CONTINUOUS
 62
     3
 10
16371.6
 20
2945.32
 30
0.0
 40
175.0
  0
CIRCLE
  5
270
  8
0
  6
CONTINUOUS
 62
     3
 10
12964.0
 20
3571.25
 30
0.0
 40
100.0
  0
ARC
  5
271
  8
0
  6
CONTINUOUS
 62
     3
 10
4693.24
 20
11391.8
 30
0.0
 40
295.008
 50
89.435847
 51
30.556183
  0
ARC
  5
272
  8
0
  6
CONTINUOUS
 62
     3
 10
4693.24
 20
11391.8
 30
0.0
 40
145.0
 50
180.1
 51
300.054
  0
CIRCLE
  5
273
  8
0
  6
CONTINUOUS
 62
     3
 10
4693.24
 20
11391.8
 30
0.0
 40
76.1997
  0
CIRCLE
  5
274
  8
0
  6
CONTINUOUS
 62
     3
 10
4693.24
 20
11391.8
 30
0.0
 40
64.9999
  0
ARC
  5
275
  8
0
  6
CONTINUOUS
 62
     3
 10
5140.45
 20
11524.1
 30
0.0
 40
49.9997
 50
226.826
 51
40.8399
  0
ARC
  5
276
  8
0
  6
CONTINUOUS
 62
     3
 10
4868.17
 20
12321.8
 30
0.0
 40
275.0
 50
36.0935
 51
84.7853
  0
ARC
  5
277
  8
0
  6
CONTINUOUS
 62
     3
 10
4868.17
 20
12321.8
 30
0.0
 40
275.0
 50
95.2154
 51
246.422
  0
ARC
  5
278
  8
0
  6
CONTINUOUS
 62
     3
 10
5213.15
 20
12322.7
 30
0.0
 40
202.5
 50
97.0889
 51
276.699
  0
CIRCLE
  5
279
  8
0
  6
CONTINUOUS
 62
     3
 10
4868.17
 20
12321.8
 30
0.0
 40
42.0
  0
ARC
  5
27A
  8
0
  6
CONTINUOUS
 62
     3
 10
4808.17
 20
12076.9
 30
0.0
 40
50.0
 50
180.002
 51
257.324
  0
ARC
  5
27B
  8
0
  6
CONTINUOUS
 62
     3
 10
5010.23
 20
12041.8
 30
0.0
 40
59.9998
 50
166.933
 51
257.324
  0
ARC
  5
27C
  8
0
  6
CONTINUOUS
 62
     3
 10
4868.17
 20
12614.2
 30
0.0
 40
25.0
 50
96.8927
 51
181.385
  0
ARC
  5
27D
  8
0
  6
CONTINUOUS
 62
     3
 10
4868.17
 20
12321.8
 30
0.0
 40
110.0
 50
90.0
 51
180.261
  0
ARC
  5
27E
  8
0
  6
CONTINUOUS
 62
     3
 10
4868.17
 20
12614.2
 30
0.0
 40
25.0
 50
0.0
 51
83.1085
  0
CIRCLE
  5
27F
  8
0
  6
CONTINUOUS
 62
     3
 10
4868.17
 20
12321.8
 30
0.0
 40
72.4999
  0
ARC
  5
280
  8
0
  6
CONTINUOUS
 62
     3
 10
5213.15
 20
12322.7
 30
0.0
 40
162.5
 50
165.728
 51
194.264
  0
ARC
  5
281
  8
0
  6
CONTINUOUS
 62
     3
 10
5213.15
 20
12322.7
 30
0.0
 40
80.0
 50
108.199
 51
210.313
  0
ARC
  5
282
  8
0
  6
CONTINUOUS
 62
     3
 10
5152.64
 20
12067.5
 30
0.0
 40
99.9997
 50
337.017
 51
29.9994
  0
ARC
  5
283
  8
0
  6
CONTINUOUS
 62
     3
 10
5173.15
 20
12180.8
 30
0.0
 40
15.0
 50
254.259
 51
0.016788
  0
ARC
  5
284
  8
0
  6
CONTINUOUS
 62
     3
 10
5110.19
 20
12217.1
 30
0.0
 40
15.0001
 50
120.009
 51
225.708
  0
ARC
  5
285
  8
0
  6
CONTINUOUS
 62
     3
 10
5070.21
 20
12286.4
 30
0.0
 40
15.0
 50
194.26
 51
300.016
  0
ARC
  5
286
  8
0
  6
CONTINUOUS
 62
     3
 10
5213.15
 20
12322.7
 30
0.0
 40
162.5
 50
225.728
 51
254.264
  0
ARC
  5
287
  8
0
  6
CONTINUOUS
 62
     3
 10
5253.15
 20
12464.7
 30
0.0
 40
15.0
 50
74.259
 51
180.017
  0
ARC
  5
288
  8
0
  6
CONTINUOUS
 62
     3
 10
5213.15
 20
12322.7
 30
0.0
 40
202.5
 50
5.40282
 51
82.9069
  0
ARC
  5
289
  8
0
  6
CONTINUOUS
 62
     3
 10
5173.17
 20
12464.7
 30
0.0
 40
15.0
 50
0.009339
 51
105.708
  0
ARC
  5
28A
  8
0
  6
CONTINUOUS
 62
     3
 10
5213.15
 20
12322.7
 30
0.0
 40
207.0
 50
80.8059
 51
83.0619
  0
ARC
  5
28B
  8
0
  6
CONTINUOUS
 62
     3
 10
5110.21
 20
12428.3
 30
0.0
 40
14.9998
 50
134.259
 51
240.016
  0
ARC
  5
28C
  8
0
  6
CONTINUOUS
 62
     3
 10
5070.21
 20
12359.1
 30
0.0
 40
15.0
 50
60.0098
 51
165.709
  0
ARC
  5
28D
  8
0
  6
CONTINUOUS
 62
     3
 10
5213.15
 20
12322.7
 30
0.0
 40
162.5
 50
105.728
 51
134.264
  0
ARC
  5
28E
  8
0
  6
CONTINUOUS
 62
     3
 10
5213.15
 20
12322.7
 30
0.0
 40
162.5
 50
11.6256
 51
14.2632
  0
ARC
  5
28F
  8
0
  6
CONTINUOUS
 62
     3
 10
5356.11
 20
12359.1
 30
0.0
 40
15.0
 50
14.2599
 51
120.016
  0
ARC
  5
290
  8
0
  6
CONTINUOUS
 62
     3
 10
5316.12
 20
12428.3
 30
0.0
 40
15.0001
 50
300.009
 51
45.7082
  0
ARC
  5
291
  8
0
  6
CONTINUOUS
 62
     3
 10
5213.15
 20
12322.7
 30
0.0
 40
162.5
 50
45.7276
 51
74.2636
  0
ARC
  5
292
  8
0
  6
CONTINUOUS
 62
     3
 10
12308.7
 20
11622.8
 30
0.0
 40
60.0
 50
89.9963
 51
165.067
  0
ARC
  5
293
  8
0
  6
CONTINUOUS
 62
     3
 10
12030.2
 20
11461.7
 30
0.0
 40
30.0
 50
180.0
 51
256.228
  0
ARC
  5
294
  8
0
  6
CONTINUOUS
 62
     3
 10
2656.95
 20
14170.5
 30
0.0
 40
295.008
 50
89.440909
 51
30.561246
  0
ARC
  5
295
  8
0
  6
CONTINUOUS
 62
     3
 10
3104.16
 20
14302.8
 30
0.0
 40
49.9997
 50
226.826
 51
40.8399
  0
ARC
  5
296
  8
0
  6
CONTINUOUS
 62
     3
 10
2656.95
 20
14170.5
 30
0.0
 40
145.0
 50
180.1
 51
300.054
  0
CIRCLE
  5
297
  8
0
  6
CONTINUOUS
 62
     3
 10
2656.95
 20
14170.5
 30
0.0
 40
64.9999
  0
CIRCLE
  5
298
  8
0
  6
CONTINUOUS
 62
     3
 10
2656.95
 20
14170.5
 30
0.0
 40
76.1997
  0
ARC
  5
299
  8
0
  6
CONTINUOUS
 62
     3
 10
2831.88
 20
15100.5
 30
0.0
 40
275.0
 50
342.0779
 51
84.7853
  0
ARC
  5
29A
  8
0
  6
CONTINUOUS
 62
     3
 10
2831.88
 20
15100.5
 30
0.0
 40
275.0
 50
95.2154
 51
246.422
  0
CIRCLE
  5
29B
  8
0
  6
CONTINUOUS
 62
     3
 10
2831.88
 20
15100.5
 30
0.0
 40
42.0
  0
ARC
  5
29C
  8
0
  6
CONTINUOUS
 62
     3
 10
2831.88
 20
15100.5
 30
0.0
 40
110.0
 50
90.0
 51
180.261
  0
ARC
  5
29D
  8
0
  6
CONTINUOUS
 62
     3
 10
2771.88
 20
14855.7
 30
0.0
 40
50.0
 50
180.002
 51
257.324
  0
ARC
  5
29E
  8
0
  6
CONTINUOUS
 62
     3
 10
2973.94
 20
14820.5
 30
0.0
 40
59.9998
 50
166.933
 51
257.324
  0
CIRCLE
  5
29F
  8
0
  6
CONTINUOUS
 62
     3
 10
2831.88
 20
15100.5
 30
0.0
 40
72.4998
  0
ARC
  5
2A0
  8
0
  6
CONTINUOUS
 62
     3
 10
2831.88
 20
15393.0
 30
0.0
 40
25.0
 50
0.0
 51
83.1085
  0
ARC
  5
2A1
  8
0
  6
CONTINUOUS
 62
     3
 10
2831.88
 20
15393.0
 30
0.0
 40
25.0
 50
96.8927
 51
181.385
  0
ARC
  5
2A2
  8
0
  6
CONTINUOUS
 62
     3
 10
10926.9
 20
15101.4
 30
0.0
 40
202.5
 50
97.0889
 51
276.699
  0
ARC
  5
2A3
  8
0
  6
CONTINUOUS
 62
     3
 10
10926.9
 20
15101.4
 30
0.0
 40
162.5
 50
165.728
 51
194.264
  0
ARC
  5
2A4
  8
0
  6
CONTINUOUS
 62
     3
 10
10926.9
 20
15101.4
 30
0.0
 40
80.0
 50
108.199
 51
210.313
  0
ARC
  5
2A5
  8
0
  6
CONTINUOUS
 62
     3
 10
10783.9
 20
15065.1
 30
0.0
 40
15.0
 50
194.26
 51
300.016
  0
ARC
  5
2A6
  8
0
  6
CONTINUOUS
 62
     3
 10
10886.9
 20
14959.5
 30
0.0
 40
15.0
 50
254.259
 51
0.016788
  0
ARC
  5
2A7
  8
0
  6
CONTINUOUS
 62
     3
 10
10866.3
 20
14846.3
 30
0.0
 40
99.9997
 50
337.017
 51
29.9994
  0
ARC
  5
2A8
  8
0
  6
CONTINUOUS
 62
     3
 10
10823.9
 20
14995.8
 30
0.0
 40
15.0001
 50
120.009
 51
225.708
  0
ARC
  5
2A9
  8
0
  6
CONTINUOUS
 62
     3
 10
10926.9
 20
15101.4
 30
0.0
 40
162.5
 50
225.728
 51
254.264
  0
ARC
  5
2AA
  8
0
  6
CONTINUOUS
 62
     3
 10
10783.9
 20
15137.8
 30
0.0
 40
15.0
 50
60.0098
 51
165.709
  0
ARC
  5
2AB
  8
0
  6
CONTINUOUS
 62
     3
 10
10926.9
 20
15101.4
 30
0.0
 40
162.5
 50
45.7276
 51
74.2636
  0
ARC
  5
2AC
  8
0
  6
CONTINUOUS
 62
     3
 10
10926.9
 20
15101.4
 30
0.0
 40
202.5
 50
5.40282
 51
82.9069
  0
ARC
  5
2AD
  8
0
  6
CONTINUOUS
 62
     3
 10
10886.9
 20
15243.4
 30
0.0
 40
15.0
 50
0.009339
 51
105.708
  0
ARC
  5
2AE
  8
0
  6
CONTINUOUS
 62
     3
 10
10966.9
 20
15243.4
 30
0.0
 40
15.0
 50
74.259
 51
180.017
  0
ARC
  5
2AF
  8
0
  6
CONTINUOUS
 62
     3
 10
10823.9
 20
15207.1
 30
0.0
 40
14.9998
 50
134.259
 51
240.016
  0
ARC
  5
2B0
  8
0
  6
CONTINUOUS
 62
     3
 10
10926.9
 20
15101.4
 30
0.0
 40
162.5
 50
105.728
 51
134.264
  0
ARC
  5
2B1
  8
0
  6
CONTINUOUS
 62
     3
 10
10926.9
 20
15101.4
 30
0.0
 40
162.5
 50
11.6256
 51
14.2632
  0
ARC
  5
2B2
  8
0
  6
CONTINUOUS
 62
     3
 10
11069.8
 20
15137.8
 30
0.0
 40
15.0
 50
14.2599
 51
120.016
  0
ARC
  5
2B3
  8
0
  6
CONTINUOUS
 62
     3
 10
11029.8
 20
15207.1
 30
0.0
 40
15.0001
 50
300.009
 51
45.7082
  0
ARC
  5
2B4
  8
0
  6
CONTINUOUS
 62
     3
 10
25772.4
 20
14401.5
 30
0.0
 40
60.0
 50
89.9963
 51
165.067
  0
ARC
  5
2B5
  8
0
  6
CONTINUOUS
 62
     3
 10
25493.9
 20
14240.4
 30
0.0
 40
30.0
 50
180.0
 51
256.228
  0
CIRCLE
  5
2B8
  8
0
  6
CONTINUOUS
 62
     3
 10
12125.2
 20
11537.8
 30
0.0
 40
49.9999
  0
CIRCLE
  5
2BF
  8
0
  6
CONTINUOUS
 62
     3
 10
25588.9
 20
14316.5
 30
0.0
 40
49.9999
  0
CIRCLE
  5
2C6
  8
0
  6
CONTINUOUS
 62
     3
 10
14883.2
 20
12211.8
 30
0.0
 40
57.5
  0
CIRCLE
  5
2C7
  8
0
  6
CONTINUOUS
 62
     3
 10
14883.2
 20
12211.8
 30
0.0
 40
76.2
  0
CIRCLE
  5
2C8
  8
0
  6
CONTINUOUS
 62
     3
 10
28346.9
 20
14990.5
 30
0.0
 40
57.5
  0
CIRCLE
  5
2C9
  8
0
  6
CONTINUOUS
 62
     3
 10
28346.9
 20
14990.5
 30
0.0
 40
76.2
  0
TEXT
  5
2CA
  8
0
  6
CONTINUOUS
 62
     7
 10
22802.484567
 20
4292.440133
 30
0.0
 40
490.0
  1
AR200111P,AR200211P
 41
0.75
  0
TEXT
  5
2CB
  8
0
  6
CONTINUOUS
 62
     7
 10
22807.338395
 20
3624.110018
 30
0.0
 40
490.0
  1
AR-2000M
 41
0.75
  0
TEXT
  5
2CC
  8
0
  6
CONTINUOUS
 62
     7
 10
22855.938395
 20
2927.940018
 30
0.0
 40
490.0
  1
FLJ
 41
0.75
  0
TEXT
  5
2CD
  8
0
  6
CONTINUOUS
 62
     7
 10
18869.884567
 20
3608.400133
 30
0.0
 40
560.0
  1
ï@ü@ü@ü@ÄÝ
  0
TEXT
  5
2CE
  8
0
  6
CONTINUOUS
 62
     7
 10
18886.084567
 20
4320.760133
 30
0.0
 40
560.0
  1
âtâ@âCâïû╝
  0
TEXT
  5
2CF
  8
0
  6
CONTINUOUS
 62
     7
 10
18853.684567
 20
2847.470133
 30
0.0
 40
560.0
  1
âXâyâbâN
  0
POINT
  5
2D8
  8
ô_
 62
     1
 10
25588.9
 20
14316.5
 30
0.0
  0
POINT
  5
2D9
  8
ô_
 62
     1
 10
28346.9
 20
14990.5
 30
0.0
  0
LINE
  5
2DB
  8
ô_
 62
     3
 10
4799.4
 20
11285.6
 30
0.0
 11
4765.858318
 21
11266.294702
 31
0.0
  0
POINT
  5
2DC
  8
ô_
 62
     1
 10
12125.2
 20
11537.8
 30
0.0
  0
POINT
  5
2DF
  8
ô_
 62
     3
 10
12125.2
 20
11537.8
 30
0.0
  0
POINT
  5
2E0
  8
ô_
 62
     1
 10
14883.2
 20
12211.8
 30
0.0
  0
POINT
  5
2E1
  8
ô_
 62
     1
 10
12963.6
 20
8309.8
 30
0.0
  0
POINT
  5
2E2
  8
ô_
 62
     1
 10
15721.6
 20
8983.81
 30
0.0
  0
POINT
  5
2E3
  8
ô_
 62
     1
 10
14920.7
 20
7770.89
 30
0.0
  0
POINT
  5
2E4
  8
ô_
 62
     1
 10
15605.6
 20
7184.81
 30
0.0
  0
POINT
  5
2E5
  8
ô_
 62
     1
 10
16471.6
 20
7684.77
 30
0.0
  0
POINT
  5
2E6
  8
ô_
 62
     1
 10
12963.6
 20
3571.33
 30
0.0
  0
POINT
  5
2E7
  8
ô_
 62
     1
 10
15721.6
 20
4245.34
 30
0.0
  0
POINT
  5
2E8
  8
ô_
 62
     1
 10
17221.6
 20
4245.34
 30
0.0
  0
POINT
  5
2E9
  8
ô_
 62
     1
 10
17221.6
 20
3245.39
 30
0.0
  0
POINT
  5
2EA
  8
ô_
 62
     1
 10
16371.6
 20
2945.31
 30
0.0
  0
TEXT
  8
0
  40
320
  5
430
  62
7
  72
0
  71
0
 10
18507.5
 20
7144.91
 30
0.000000
  1
ALL RIGHTS RESERVED,COPYRIGHT(C) TADANOSYSTEMS INC.
  0
LINE
  5
355
  8
0
  6
CONTINUOUS
 62
     7
 10
20985.650149
 20
6759.303107
 30
0.0
 11
20985.650149
 21
6199.303107
 31
0.0
  0
LINE
  5
356
  8
0
  6
CONTINUOUS
 62
     7
 10
19417.650149
 20
6759.303107
 30
0.0
 11
19417.650149
 21
5919.303107
 31
0.0
  0
LINE
  5
357
  8
0
  6
CONTINUOUS
 62
     7
 10
19417.650149
 20
5919.303107
 30
0.0
 11
20509.650149
 21
6759.303107
 31
0.0
  0
LINE
  5
358
  8
0
  6
CONTINUOUS
 62
     7
 10
19697.650149
 20
5639.303107
 30
0.0
 11
20537.650149
 21
6759.303107
 31
0.0
  0
LINE
  5
359
  8
0
  6
CONTINUOUS
 62
     7
 10
19697.650149
 20
5639.303107
 30
0.0
 11
20537.650149
 21
5639.303107
 31
0.0
  0
LINE
  5
35A
  8
0
  6
CONTINUOUS
 62
     7
 10
20537.650149
 20
6199.303107
 30
0.0
 11
20537.650149
 21
5639.303107
 31
0.0
  0
LINE
  5
35B
  8
0
  6
CONTINUOUS
 62
     7
 10
20537.650149
 20
6199.303107
 30
0.0
 11
20985.650149
 21
6199.303107
 31
0.0
  0
LINE
  5
35C
  8
0
  6
CONTINUOUS
 62
     7
 10
19417.650149
 20
6759.303107
 30
0.0
 11
20509.650149
 21
6759.303107
 31
0.0
  0
LINE
  5
35D
  8
0
  6
CONTINUOUS
 62
     7
 10
20537.650149
 20
6759.303107
 30
0.0
 11
20985.650149
 21
6759.303107
 31
0.0
  0
LINE
  5
35E
  8
0
  6
CONTINUOUS
 62
     7
 10
23072.370149
 20
6199.303107
 30
0.0
 11
23255.330149
 21
6199.303107
 31
0.0
  0
LINE
  5
35F
  8
0
  6
CONTINUOUS
 62
     7
 10
23072.370149
 20
6199.303107
 30
0.0
 11
23275.010149
 21
6759.303107
 31
0.0
  0
LINE
  5
360
  8
0
  6
CONTINUOUS
 62
     7
 10
22751.490149
 20
6621.383107
 30
0.0
 11
22751.490149
 21
6339.943107
 31
0.0
  0
ARC
  5
361
  8
0
  6
CONTINUOUS
 62
     7
 10
22717.730149
 20
6479.303107
 30
0.0
 40
213.884
 50
340.276
 51
22.213
  0
ARC
  5
362
  8
0
  6
CONTINUOUS
 62
     7
 10
22729.010149
 20
6479.303107
 30
0.0
 40
368.668
 50
341.626
 51
23.9327
  0
LINE
  5
363
  8
0
  6
CONTINUOUS
 62
     7
 10
22269.570149
 20
6534.823107
 30
0.0
 11
22311.330149
 21
6399.063107
 31
0.0
  0
LINE
  5
364
  8
0
  6
CONTINUOUS
 62
     7
 10
22245.730149
 20
6534.823107
 30
0.0
 11
22203.810149
 21
6399.063107
 31
0.0
  0
LINE
  5
365
  8
0
  6
CONTINUOUS
 62
     7
 10
21701.890149
 20
6607.303107
 30
0.0
 11
21701.890149
 21
6199.303107
 31
0.0
  0
LINE
  5
366
  8
0
  6
CONTINUOUS
 62
     7
 10
22585.570149
 20
6759.303107
 30
0.0
 11
22585.570149
 21
6199.303107
 31
0.0
  0
LINE
  5
367
  8
0
  6
CONTINUOUS
 62
     7
 10
22353.330149
 20
6759.303107
 30
0.0
 11
22555.970149
 21
6199.303107
 31
0.0
  0
LINE
  5
368
  8
0
  6
CONTINUOUS
 62
     7
 10
22161.970149
 20
6759.303107
 30
0.0
 11
21959.330149
 21
6199.303107
 31
0.0
  0
LINE
  5
369
  8
0
  6
CONTINUOUS
 62
     7
 10
21879.170149
 20
6607.303107
 30
0.0
 11
21879.170149
 21
6199.303107
 31
0.0
  0
LINE
  5
36A
  8
0
  6
CONTINUOUS
 62
     7
 10
22167.410149
 20
6280.903107
 30
0.0
 11
22142.210149
 21
6199.303107
 31
0.0
  0
LINE
  5
36B
  8
0
  6
CONTINUOUS
 62
     7
 10
21701.890149
 20
6199.303107
 30
0.0
 11
21879.170149
 21
6199.303107
 31
0.0
  0
LINE
  5
36C
  8
0
  6
CONTINUOUS
 62
     7
 10
21959.330149
 20
6199.303107
 30
0.0
 11
22142.210149
 21
6199.303107
 31
0.0
  0
LINE
  5
36D
  8
0
  6
CONTINUOUS
 62
     7
 10
22585.570149
 20
6199.303107
 30
0.0
 11
22851.890149
 21
6199.303107
 31
0.0
  0
LINE
  5
36E
  8
0
  6
CONTINUOUS
 62
     7
 10
22203.810149
 20
6399.063107
 30
0.0
 11
22311.330149
 21
6399.063107
 31
0.0
  0
LINE
  5
36F
  8
0
  6
CONTINUOUS
 62
     7
 10
22167.410149
 20
6280.903107
 30
0.0
 11
22347.890149
 21
6280.903107
 31
0.0
  0
LINE
  5
370
  8
0
  6
CONTINUOUS
 62
     7
 10
22372.930149
 20
6199.303107
 30
0.0
 11
22555.970149
 21
6199.303107
 31
0.0
  0
LINE
  5
371
  8
0
  6
CONTINUOUS
 62
     7
 10
22347.890149
 20
6280.903107
 30
0.0
 11
22372.930149
 21
6199.303107
 31
0.0
  0
LINE
  5
372
  8
0
  6
CONTINUOUS
 62
     7
 10
22751.490149
 20
6339.943107
 30
0.0
 11
22823.730149
 21
6339.943107
 31
0.0
  0
ARC
  5
373
  8
0
  6
CONTINUOUS
 62
     7
 10
22823.730149
 20
6441.303107
 30
0.0
 40
101.3144
 50
270.0
 51
340.276
  0
ARC
  5
374
  8
0
  6
CONTINUOUS
 62
     7
 10
22851.890149
 20
6438.503107
 30
0.0
 40
239.212
 50
270.0
 51
341.626
  0
LINE
  5
375
  8
0
  6
CONTINUOUS
 62
     7
 10
21545.650149
 20
6759.303107
 30
0.0
 11
22035.250149
 21
6759.303107
 31
0.0
  0
LINE
  5
376
  8
0
  6
CONTINUOUS
 62
     7
 10
21545.650149
 20
6607.303107
 30
0.0
 11
21701.890149
 21
6607.303107
 31
0.0
  0
LINE
  5
377
  8
0
  6
CONTINUOUS
 62
     7
 10
21545.650149
 20
6759.303107
 30
0.0
 11
21545.650149
 21
6607.303107
 31
0.0
  0
LINE
  5
378
  8
0
  6
CONTINUOUS
 62
     7
 10
22035.250149
 20
6759.303107
 30
0.0
 11
22035.250149
 21
6607.303107
 31
0.0
  0
LINE
  5
379
  8
0
  6
CONTINUOUS
 62
     7
 10
21879.170149
 20
6607.303107
 30
0.0
 11
22035.250149
 21
6607.303107
 31
0.0
  0
LINE
  5
37A
  8
0
  6
CONTINUOUS
 62
     7
 10
22585.570149
 20
6759.303107
 30
0.0
 11
22865.330149
 21
6759.303107
 31
0.0
  0
ARC
  5
37B
  8
0
  6
CONTINUOUS
 62
     7
 10
22550.290149
 20
6621.383107
 30
0.0
 40
293.7896
 50
188.261
 51
197.133
  0
ARC
  5
37C
  8
0
  6
CONTINUOUS
 62
     7
 10
21964.930149
 20
6621.383107
 30
0.0
 40
293.7904
 50
342.867
 51
351.73902
  0
LINE
  5
37D
  8
0
  6
CONTINUOUS
 62
     7
 10
22255.730149
 20
6579.223107
 30
0.0
 11
22259.650149
 21
6579.223107
 31
0.0
  0
LINE
  5
37E
  8
0
  6
CONTINUOUS
 62
     7
 10
22161.970149
 20
6759.303107
 30
0.0
 11
22353.330149
 21
6759.303107
 31
0.0
  0
ARC
  5
37F
  8
0
  6
CONTINUOUS
 62
     7
 10
22824.530149
 20
6522.823107
 30
0.0
 40
98.4984
 50
22.2133
 51
90.0
  0
LINE
  5
380
  8
0
  6
CONTINUOUS
 62
     7
 10
22751.490149
 20
6621.383107
 30
0.0
 11
22824.530149
 21
6621.383107
 31
0.0
  0
ARC
  5
381
  8
0
  6
CONTINUOUS
 62
     7
 10
22865.330149
 20
6539.783107
 30
0.0
 40
219.5136
 50
23.9328
 51
90.0
  0
ARC
  5
382
  8
0
  6
CONTINUOUS
 62
     7
 10
24386.610149
 20
6479.303107
 30
0.0
 40
284.24
 50
345.311
 51
14.6886
  0
ARC
  5
383
  8
0
  6
CONTINUOUS
 62
     7
 10
24743.970149
 20
6479.303107
 30
0.0
 40
284.24
 50
165.132
 51
194.869
  0
ARC
  5
384
  8
0
  6
CONTINUOUS
 62
     7
 10
24511.810149
 20
6479.303107
 30
0.0
 40
337.7128
 50
332.938
 51
27.062
  0
ARC
  5
385
  8
0
  6
CONTINUOUS
 62
     7
 10
23498.690149
 20
6466.663107
 30
0.0
 40
360.2264
 50
0.0
 51
6.7299
  0
ARC
  5
386
  8
0
  6
CONTINUOUS
 62
     7
 10
24357.010149
 20
6759.303107
 30
0.0
 40
557.0016
 50
206.723
 51
211.578
  0
ARC
  5
387
  8
0
  6
CONTINUOUS
 62
     7
 10
24413.410149
 20
6491.943107
 30
0.0
 40
360.2264
 50
180.0
 51
186.73
  0
ARC
  5
388
  8
0
  6
CONTINUOUS
 62
     7
 10
23555.010149
 20
6199.303107
 30
0.0
 40
556.9992
 50
26.7228
 51
31.5781
  0
LINE
  5
389
  8
0
  6
CONTINUOUS
 62
     7
 10
23358.770149
 20
6534.823107
 30
0.0
 11
23316.930149
 21
6399.063107
 31
0.0
  0
LINE
  5
38A
  8
0
  6
CONTINUOUS
 62
     7
 10
23382.610149
 20
6534.823107
 30
0.0
 11
23424.450149
 21
6399.063107
 31
0.0
  0
ARC
  5
38B
  8
0
  6
CONTINUOUS
 62
     7
 10
24618.770149
 20
6479.303107
 30
0.0
 40
337.7128
 50
152.861
 51
207.131
  0
LINE
  5
38C
  8
0
  6
CONTINUOUS
 62
     7
 10
23466.290149
 20
6759.303107
 30
0.0
 11
23669.010149
 21
6199.303107
 31
0.0
  0
LINE
  5
38D
  8
0
  6
CONTINUOUS
 62
     7
 10
23698.450149
 20
6759.303107
 30
0.0
 11
23698.450149
 21
6199.303107
 31
0.0
  0
LINE
  5
38E
  8
0
  6
CONTINUOUS
 62
     7
 10
24213.570149
 20
6759.303107
 30
0.0
 11
24213.570149
 21
6199.303107
 31
0.0
  0
LINE
  5
38F
  8
0
  6
CONTINUOUS
 62
     7
 10
23698.450149
 20
6199.303107
 30
0.0
 11
23859.010149
 21
6199.303107
 31
0.0
  0
LINE
  5
390
  8
0
  6
CONTINUOUS
 62
     7
 10
23316.930149
 20
6399.063107
 30
0.0
 11
23424.450149
 21
6399.063107
 31
0.0
  0
LINE
  5
391
  8
0
  6
CONTINUOUS
 62
     7
 10
23280.370149
 20
6280.903107
 30
0.0
 11
23460.930149
 21
6280.903107
 31
0.0
  0
LINE
  5
392
  8
0
  6
CONTINUOUS
 62
     7
 10
23486.050149
 20
6199.303107
 30
0.0
 11
23669.010149
 21
6199.303107
 31
0.0
  0
LINE
  5
393
  8
0
  6
CONTINUOUS
 62
     7
 10
23280.370149
 20
6280.903107
 30
0.0
 11
23255.330149
 21
6199.303107
 31
0.0
  0
LINE
  5
394
  8
0
  6
CONTINUOUS
 62
     7
 10
23460.930149
 20
6280.903107
 30
0.0
 11
23486.050149
 21
6199.303107
 31
0.0
  0
LINE
  5
395
  8
0
  6
CONTINUOUS
 62
     7
 10
24052.530149
 20
6449.703107
 30
0.0
 11
24055.650149
 21
6449.703107
 31
0.0
  0
LINE
  5
396
  8
0
  6
CONTINUOUS
 62
     7
 10
24047.490149
 20
6199.303107
 30
0.0
 11
24213.570149
 21
6199.303107
 31
0.0
  0
LINE
  5
397
  8
0
  6
CONTINUOUS
 62
     7
 10
23882.530149
 20
6467.623107
 30
0.0
 11
24047.490149
 21
6199.303107
 31
0.0
  0
LINE
  5
398
  8
0
  6
CONTINUOUS
 62
     7
 10
23859.010149
 20
6466.663107
 30
0.0
 11
23859.010149
 21
6199.303107
 31
0.0
  0
ARC
  5
399
  8
0
  6
CONTINUOUS
 62
     7
 10
24565.330149
 20
6432.503107
 30
0.0
 40
99.4984
 50
195.203
 51
345.311
  0
ARC
  5
39A
  8
0
  6
CONTINUOUS
 62
     7
 10
24565.330149
 20
6524.263107
 30
0.0
 40
337.7128
 50
252.699
 51
287.263
  0
ARC
  5
39B
  8
0
  6
CONTINUOUS
 62
     7
 10
24538.610149
 20
6438.263107
 30
0.0
 40
247.6544
 50
206.967
 51
252.685
  0
ARC
  5
39C
  8
0
  6
CONTINUOUS
 62
     7
 10
24592.050149
 20
6438.263107
 30
0.0
 40
247.6568
 50
287.263
 51
332.938
  0
LINE
  5
39D
  8
0
  6
CONTINUOUS
 62
     7
 10
23698.450149
 20
6759.303107
 30
0.0
 11
23864.610149
 21
6759.303107
 31
0.0
  0
ARC
  5
39E
  8
0
  6
CONTINUOUS
 62
     7
 10
23077.970149
 20
6621.383107
 30
0.0
 40
293.7904
 50
342.867
 51
351.73902
  0
ARC
  5
39F
  8
0
  6
CONTINUOUS
 62
     7
 10
23663.330149
 20
6621.383107
 30
0.0
 40
293.7896
 50
188.261
 51
197.133
  0
LINE
  5
3A0
  8
0
  6
CONTINUOUS
 62
     7
 10
23368.770149
 20
6579.223107
 30
0.0
 11
23372.530149
 21
6579.223107
 31
0.0
  0
LINE
  5
3A1
  8
0
  6
CONTINUOUS
 62
     7
 10
23275.010149
 20
6759.303107
 30
0.0
 11
23466.290149
 21
6759.303107
 31
0.0
  0
LINE
  5
3A2
  8
0
  6
CONTINUOUS
 62
     7
 10
23864.610149
 20
6759.303107
 30
0.0
 11
24029.570149
 21
6490.903107
 31
0.0
  0
LINE
  5
3A3
  8
0
  6
CONTINUOUS
 62
     7
 10
23856.370149
 20
6508.823107
 30
0.0
 11
23859.570149
 21
6508.823107
 31
0.0
  0
LINE
  5
3A4
  8
0
  6
CONTINUOUS
 62
     7
 10
24053.090149
 20
6759.303107
 30
0.0
 11
24053.090149
 21
6491.943107
 31
0.0
  0
LINE
  5
3A5
  8
0
  6
CONTINUOUS
 62
     7
 10
24053.090149
 20
6759.303107
 30
0.0
 11
24213.570149
 21
6759.303107
 31
0.0
  0
ARC
  5
3A6
  8
0
  6
CONTINUOUS
 62
     7
 10
24538.610149
 20
6520.263107
 30
0.0
 40
247.6568
 50
107.346
 51
153.043
  0
ARC
  5
3A7
  8
0
  6
CONTINUOUS
 62
     7
 10
24565.330149
 20
6526.103107
 30
0.0
 40
99.4976
 50
14.6894
 51
164.799
  0
ARC
  5
3A8
  8
0
  6
CONTINUOUS
 62
     7
 10
24565.330149
 20
6434.263107
 30
0.0
 40
337.7128
 50
72.7367
 51
107.323
  0
ARC
  5
3A9
  8
0
  6
CONTINUOUS
 62
     7
 10
24592.050149
 20
6520.263107
 30
0.0
 40
247.6552
 50
27.0618
 51
72.7366
  0
LINE
  5
3FB
  8
0
  6
CONTINUOUS
 62
     7
 10
21175.034587
 20
14973.080807
 30
0.0
 11
21543.584587
 21
14973.080807
 31
0.0
  0
LINE
  5
3FC
  8
0
  6
CONTINUOUS
 62
     7
 10
21175.034587
 20
14689.580807
 30
0.0
 11
21543.584587
 21
14973.080807
 31
0.0
  0
LINE
  5
3FD
  8
0
  6
CONTINUOUS
 62
     7
 10
21175.034587
 20
14973.080807
 30
0.0
 11
21175.034587
 21
14689.580807
 31
0.0
  0
LINE
  5
3FE
  8
0
  6
CONTINUOUS
 62
     7
 10
21553.034587
 20
14784.080807
 30
0.0
 11
21553.034587
 21
14595.080807
 31
0.0
  0
LINE
  5
3FF
  8
0
  6
CONTINUOUS
 62
     7
 10
21269.534587
 20
14595.080807
 30
0.0
 11
21553.034587
 21
14973.080807
 31
0.0
  0
LINE
  5
400
  8
0
  6
CONTINUOUS
 62
     7
 10
21269.534587
 20
14595.080807
 30
0.0
 11
21553.034587
 21
14595.080807
 31
0.0
  0
LINE
  5
401
  8
0
  6
CONTINUOUS
 62
     7
 10
21553.034587
 20
14973.080807
 30
0.0
 11
21704.234587
 21
14973.080807
 31
0.0
  0
LINE
  5
402
  8
0
  6
CONTINUOUS
 62
     7
 10
21553.034587
 20
14784.080807
 30
0.0
 11
21704.234587
 21
14784.080807
 31
0.0
  0
LINE
  5
403
  8
0
  6
CONTINUOUS
 62
     7
 10
21704.234587
 20
14973.080807
 30
0.0
 11
21704.234587
 21
14784.080807
 31
0.0
  0
LINE
  5
404
  8
0
  6
CONTINUOUS
 62
     7
 10
7711.294587
 20
12194.380807
 30
0.0
 11
8079.844587
 21
12194.380807
 31
0.0
  0
LINE
  5
405
  8
0
  6
CONTINUOUS
 62
     7
 10
7711.294587
 20
11910.880807
 30
0.0
 11
8079.844587
 21
12194.380807
 31
0.0
  0
LINE
  5
406
  8
0
  6
CONTINUOUS
 62
     7
 10
7711.294587
 20
12194.380807
 30
0.0
 11
7711.294587
 21
11910.880807
 31
0.0
  0
LINE
  5
407
  8
0
  6
CONTINUOUS
 62
     7
 10
8089.294587
 20
12005.380807
 30
0.0
 11
8089.294587
 21
11816.380807
 31
0.0
  0
LINE
  5
408
  8
0
  6
CONTINUOUS
 62
     7
 10
7805.794587
 20
11816.380807
 30
0.0
 11
8089.294587
 21
12194.380807
 31
0.0
  0
LINE
  5
409
  8
0
  6
CONTINUOUS
 62
     7
 10
7805.794587
 20
11816.380807
 30
0.0
 11
8089.294587
 21
11816.380807
 31
0.0
  0
LINE
  5
40A
  8
0
  6
CONTINUOUS
 62
     7
 10
8089.294587
 20
12194.380807
 30
0.0
 11
8240.494587
 21
12194.380807
 31
0.0
  0
LINE
  5
40B
  8
0
  6
CONTINUOUS
 62
     7
 10
8089.294587
 20
12005.380807
 30
0.0
 11
8240.494587
 21
12005.380807
 31
0.0
  0
LINE
  5
40C
  8
0
  6
CONTINUOUS
 62
     7
 10
8240.494587
 20
12194.380807
 30
0.0
 11
8240.494587
 21
12005.380807
 31
0.0
  0
LINE
  5
40D
  8
0
  6
CONTINUOUS
 62
     7
 10
8549.624587
 20
8966.390807
 30
0.0
 11
8918.174587
 21
8966.390807
 31
0.0
  0
LINE
  5
40E
  8
0
  6
CONTINUOUS
 62
     7
 10
8549.624587
 20
8682.890807
 30
0.0
 11
8918.174587
 21
8966.390807
 31
0.0
  0
LINE
  5
40F
  8
0
  6
CONTINUOUS
 62
     7
 10
8549.624587
 20
8966.390807
 30
0.0
 11
8549.624587
 21
8682.890807
 31
0.0
  0
LINE
  5
410
  8
0
  6
CONTINUOUS
 62
     7
 10
8927.624587
 20
8777.390807
 30
0.0
 11
8927.624587
 21
8588.390807
 31
0.0
  0
LINE
  5
411
  8
0
  6
CONTINUOUS
 62
     7
 10
8644.124587
 20
8588.390807
 30
0.0
 11
8927.624587
 21
8966.390807
 31
0.0
  0
LINE
  5
412
  8
0
  6
CONTINUOUS
 62
     7
 10
8644.124587
 20
8588.390807
 30
0.0
 11
8927.624587
 21
8588.390807
 31
0.0
  0
LINE
  5
413
  8
0
  6
CONTINUOUS
 62
     7
 10
8927.624587
 20
8966.390807
 30
0.0
 11
9078.824587
 21
8966.390807
 31
0.0
  0
LINE
  5
414
  8
0
  6
CONTINUOUS
 62
     7
 10
8927.624587
 20
8777.390807
 30
0.0
 11
9078.824587
 21
8777.390807
 31
0.0
  0
LINE
  5
415
  8
0
  6
CONTINUOUS
 62
     7
 10
9078.824587
 20
8966.390807
 30
0.0
 11
9078.824587
 21
8777.390807
 31
0.0
  0
LINE
  5
416
  8
0
  6
CONTINUOUS
 62
     7
 10
8549.624587
 20
4227.920807
 30
0.0
 11
8918.174587
 21
4227.920807
 31
0.0
  0
LINE
  5
417
  8
0
  6
CONTINUOUS
 62
     7
 10
8549.624587
 20
3944.420807
 30
0.0
 11
8918.174587
 21
4227.920807
 31
0.0
  0
LINE
  5
418
  8
0
  6
CONTINUOUS
 62
     7
 10
8549.624587
 20
4227.920807
 30
0.0
 11
8549.624587
 21
3944.420807
 31
0.0
  0
LINE
  5
419
  8
0
  6
CONTINUOUS
 62
     7
 10
8927.624587
 20
4038.920807
 30
0.0
 11
8927.624587
 21
3849.920807
 31
0.0
  0
LINE
  5
41A
  8
0
  6
CONTINUOUS
 62
     7
 10
8644.124587
 20
3849.920807
 30
0.0
 11
8927.624587
 21
4227.920807
 31
0.0
  0
LINE
  5
41B
  8
0
  6
CONTINUOUS
 62
     7
 10
8644.124587
 20
3849.920807
 30
0.0
 11
8927.624587
 21
3849.920807
 31
0.0
  0
LINE
  5
41C
  8
0
  6
CONTINUOUS
 62
     7
 10
8927.624587
 20
4227.920807
 30
0.0
 11
9078.824587
 21
4227.920807
 31
0.0
  0
LINE
  5
41D
  8
0
  6
CONTINUOUS
 62
     7
 10
8927.624587
 20
4038.920807
 30
0.0
 11
9078.824587
 21
4038.920807
 31
0.0
  0
LINE
  5
41E
  8
0
  6
CONTINUOUS
 62
     7
 10
9078.824587
 20
4227.920807
 30
0.0
 11
9078.824587
 21
4038.920807
 31
0.0
  0
ENDSEC
  0
EOF
